Song name
# A B C D E F G H I J K L M N O P Q R S T U V W X Y Z

Sparks The Rescue - Scene Of Your Bedroom tab

||----------------|---------------|--------------|-------------|
||-T--------------|---------------|--------------|-------------|
||-A----10--9--7--|----10--12-----|-9-10-9-10----|---10---9----|
||-B--0---x4-x4-x4|0-----x4--x4---|--------------|-0---x4--x4--|
||----0--8--7--5--|0-x2-8--10-----|-7--7-7--7----|-0--8---7----|
||----0-----------|0--------------|--------------|-0-----------|

||----------------|---------------|--------------|-------------|
||-T--------------|---------------|--------------|-------------|
||-A-7------------|---14---12-----|-10-----------|-14---12-----|
||-B--x3-5--------|-0---x4---x4---|---x3-0-------|---x4---x4---|
||---5---5-x12?---|-0-12---10-----|--8---0-x2----|-12---10-----|
||-------5--------|-0-------------|------0-------|-------------|

||----------------|---------------|--------------|-------------|
||-T--------------|---------------|--------------|-------------|
||-A-14-15-14-15--|---14---12-----|-10---7----9--|-10----------|
||-B--------------|-0---x4---x4---|---x4--x8?--x4|---x3--------|
||---12-12-12-12--|-0-12---10-----|--8---5----7--|--8----------|
||----------------|-0-------------|--------------|-------------|

  repeat 2 times
  then wait for 
  bass part
||----------------|---------------|--------------|-------------|
||-T------7-------|---------------|--------------|-------------|
||-A-----12-------|---------------|--------------|-------------|
||-B-0------------|---------------|--------------|-------------|
||---0-x3---------|---------------|--------------|-------------|
||---0------------|---------------|--------------|-------------|

||----------------|---------------|--------------|-------------|
||-T--3---6---8---|-11--10--------|--------------|-------------|
||-A--------------|---------------|--------------|-------------|
||-B---x?--x?--x?-|---x?--x?------|--------------|-------------|
||----------------|---------------|--------------|-------------|
||----------------|---------------|--------------|-------------|

||----------------|---------------|--------------|-------------|
||-T--------------|---------------|--------------|-------------|
||-A----10--9--7--|----10--12-----|-9-10-9-10----|---10---9----|
||-B--0---x4-x4-x4|0-----x4--x4---|--------------|-0---x4--x4--|
||----0--8--7--5--|0-x2-8--10-----|-7--7-7--7----|-0--8---7----|
||----0-----------|0--------------|--------------|-0-----------|

||----------------|---------------|--------------|-------------|
||-T--------------|---------------|--------------|-------------|
||-A-7------------|---14---12-----|-10-----------|-14---12-----|
||-B--x3-5--------|-0---x4---x4---|---x3-0-------|---x4---x4---|
||---5---5-x12?---|-0-12---10-----|--8---0-x2----|-12---10-----|
||-------5--------|-0-------------|------0-------|-------------|

||----------------|---------------|--------------|-------------|
||-T--------------|---------------|--------------|-------------|
||-A-14-15-14-15--|---14---12-----|-10---7----9--|-10----------|
||-B--------------|-0---x4---x4---|---x4--x8?--x4|---x3--------|
||---12-12-12-12--|-0-12---10-----|--8---5----7--|--8----------|
||----------------|-0-------------|--------------|-------------|

             repeat 2 times
||----------------|---------------|--------------|-------------|
||-T-1------------|----3-1--------|--------------|-------------|
||-A---3-2-0-0-h2-|-p0-----3-2-0--|-h2h3---------|-------------|
||-B--------------|---------------|--------------|-------------|
||----------------|---------------|--------------|-------------|
||----------------|---------------|--------------|-------------|


 do this a bunch of times  and hit the opened part more then once at some times
||----------------|---------------|--------------|-------------|
||-T------7-------|---------------|--------------|-------------|
||-A-----12-------|---------------|--------------|-------------|
||-B-0------------|---------------|--------------|-------------|
||---0------------|---------------|--------------|-------------|
||---0------------|---------------|--------------|-------------|

||----------------|---------------|--------------|-------------|
||-T--------------|---------------|--------------|-------------|
||-A----10--9--7--|----10--12-----|-9-10-9-10----|---10---9----|
||-B--0---x4-x4-x4|0-----x4--x4---|--------------|-0---x4--x4--|
||----0--8--7--5--|0-x2-8--10-----|-7--7-7--7----|-0--8---7----|
||----0-----------|0--------------|--------------|-0-----------|

||----------------|---------------|--------------|-------------|
||-T--------------|---------------|--------------|-------------|
||-A-7------------|---14---12-----|-10-----------|-14---12-----|
||-B--x3-5--------|-0---x4---x4---|---x3-0-------|---x4---x4---|
||---5---5-x12?---|-0-12---10-----|--8---0-x2----|-12---10-----|
||-------5--------|-0-------------|------0-------|-------------|

||----------------|---------------|--------------|-------------|
||-T--------------|---------------|--------------|-------------|
||-A-14-15-14-15--|---14---12-----|-10---7----9--|-10----------|
||-B--------------|-0---x4---x4---|---x4--x8?--x4|---x3-0------|
||---12-12-12-12--|-0-12---10-----|--8---5----7--|--8---0------|
||----------------|-0-------------|--------------|------0------|

solo that i am currently working on 
end the song with this


||----------------|---------------|--------------|-------------|
||-T------7-------|---------------|--------------|-------------|
||-A-----12-------|---------------|--------------|-------------|
||-B-0------------|---------------|--------------|-------------|
||---0------------|---------------|--------------|-------------|
||---0------------|---------------|--------------|-------------|
Tap to rate this tab
# A B C D E F G H I J K L M N O P Q R S T U V W X Y Z