Song name
# A B C D E F G H I J K L M N O P Q R S T U V W X Y Z

Sparks Will Fly - Youre Not Dying tab

Sparks Will Fly - You're Not Dying
www.myspace.com/sparkswillflymusic
Drop D tuning, one half step down


Maybe just..

D#------2-----2-----2-----2--------------------|
A#----0-----0-----0-----0----------------------|
F#--4-----4-----4-----4------etc---------------|
C#---------------------------------------------|
G#---------------------------------------------|
C#---------------------------------------------|

 ...windows
D#------2-----2-----2-----2--------------------|
A#----0-----0-----0-----0----------------------|
F#---------------------------etc---------------|
C#--2-----2-----2-----2------------------------|
G#---------------------------------------------|
C#---------------------------------------------|

....sing so loud we drown out the radio
D#---------------------------------------------|
A#---------------------------------------------|
F#---------------------------------------------|
C#----2pm--------------------------------------|
G#----2pm--------------------------------------|
C#----2pm--------------------------------------|


LEAD

D#--7-7-7-7--9p7-7-7-7-------------------------|
A#--7-7-7-7--7---7-7-7-------------------------|
F#---------------------------------------------|
C#---------------------------------------------|
G#---------------------------------------------|
C#---------------------------------------------|


D#--7-7-7-7--9p7-7-7-7-------------------------|
A#--7-7-7-7--7---7-7-7-------------------------|
F#---------------------------------------------|
C#---------------------------------------------|
G#---------------------------------------------|
C#---------------------------------------------|


D#--7-7-7-7--9p7-7-7-7-------------------------|
A#--7-7-7-7--7---7-7-7-------------------------|
F#---------------------------------------------|
C#---------------------------------------------|
G#---------------------------------------------|
C#---------------------------------------------|


D#--6-6-6-6--7-7-7-7-7--9----------------------|
A#--7-7-7-7--7-7-7-7-7--7----------------------|
F#---------------------------------------------|
C#---------------------------------------------|
G#---------------------------------------------|
C#---------------------------------------------|


D#--7-7-7-7--9p7-7--10p7-7--9p7----------------|
A#--7-7-7-7--7---7--7----7--7------------------|
F#---------------------------------------------|
C#---------------------------------------------|
G#---------------------------------------------|
C#---------------------------------------------|

D#--7-7-7-7--9p7-7--10p7-7--9p7----------------|
A#--7-7-7-7--7---7--7----7--7------------------|
F#---------------------------------------------|
C#---------------------------------------------|
G#---------------------------------------------|
C#---------------------------------------------|

D#--7-7-7-7--9p7-7--10p7-7--9p7----------------|
A#--7-7-7-7--7---7--7----7--7------------------|
F#---------------------------------------------|
C#---------------------------------------------|
G#---------------------------------------------|
C#---------------------------------------------|

D#--6-6--7-7-7--6-6--7-7-7---------------------|
A#--7-7--7-7-7--7-7--7-7-7---------------------|
F#---------------------------------------------|
C#---------------------------------------------|
G#---------------------------------------------|
C#---------------------------------------------|

verse (x2)

D#---------------------------------------------|
A#---------------------------------------------|
F#--9-9-9-9-9-9-9-9--9-9-9-9-9-9-9-9-----------|
C#--7-7-7-7-7-7-7-7--9-9-9-9-9-9-9-9-----------|
G#--7-7-7-7-7-7-7-7--7-7-7-7-7-7-7-7-----------|
C#---------------------------------------------|

D#---------------------------------------------|
A#---------------------------------------------|
F#---------------------------------------------|
C#--2-2---2-2-2--2--2--2--2--2-----------------|
G#--2-2---2-2-2--2--2--2--2--2-----------------|
C#--2-2---2-2-2--2--2--2--2--2-----------------|

pre

D#------2-----2-----2-----2-----2----2-----------|
A#----0-----0-----0-----0-----0----0-------------|
F#--4-----4-----4-----4-----4----4---------------|
C#-------------------------------------2--2------|
G#-------------------------------------2--2------|
C#-------------------------------------2--2------|

chorus

B - E - E
G# - F# - E - F#
B - E - F#

postchorus


D#----------------------------------------------|
A#----------------------------------------------|
F#--4-4-4-4-4-4-4-4-4---11-11-11-11-11-11-------|
C#----------------------------------------------|
G#--2-2-2-2-2-2-2-2-2---9--9--9--9--9--9--------|
C#----------------------------------------------|

second verse

D#--------------------------------------------------|
A#--------------------------------------------------|
F#--4-4---4-4--4--4--4------------------------------|
C#--4-4---4-4--4--4--4--2-2---2-2--2--2--2----------|
G#--2-2---2-2--2--2--2--2-2---2-2--2--2--2----------|
C#----------------------2-2---2-2--2--2--2----------|


D#----------------------------------------------|
A#----------------------------------------------|
F#----------------------------------------------|
C#--6-6---6-6--6--6--6---4-4---4-4--4--4--4-----|
G#--6-6---6-6--6--6--6---4-4---4-4--4--4--4-----|
C#--6-6---6-6--6--6--6---4-4---4-4--4--4--4-----|

^x2, then


D#------------------------------------------------|
A#-------------------4h5p4------------------------|
F#------------------------------------------------|
C#-2-2--2-2--2-2----------------------------------|
G#-2-2--2-2--2-2----------------------------------|
C#-2-2--2-2--2-2----------------------------------|


Chorus

then

D#----------------------------------------------|
A#----------------------------------------------|
F#---4...---------------------------------------|
C#---4...---------------------------------------|
G#---2...---------------------------------------|
C#----------------------------------------------|

bridge chords are these:
(palm muted all the way through the first time, second time hits like this...)

D#---------------------------------------------|
A#---------------------------------------------|
F#----------------4-4--------------------------|
C#--6-6----2-2----4-4----4-4-4-4-4-4-4-4-------|
G#--6-6----2-2----2-2----4-4-4-4-4-4-4-4-------|
C#--6-6----2-2-----------4-4-4-4-4-4-4-4-------|

solo


D#------------------------------------------|
A#------------------------------------------|
F#-------3-4-------3-4--4--6--8--9--10..----|
C#---4-4------4--4--------------------------|
G#------------------------------------------|
C#------------------------------------------|


D#------------------------------------------|
A#-----------------19-----------------------|
F#--13---16h18--18b--18b-18b-18br16----16---|
C#----------------------------------18------|
G#------------------------------------------|
C#------------------------------------------|

sweep picking lick
    ^  ^  ^  v     v  v
D#--------16-19p16--------------------------|
A#-----17----------17-----------------------|
F#--16----------------16--------------------|
C#------------------------------------------|
G#------------------------------------------|
C#------------------------------------------|

D#----------------------19p16----16-------------------------------------------|
A#-----19-----19----19--------19----19p16-19p16----16-----------19------------|
F#--18b---18b---18b-----------------------------18----18p16--18b---18b--16..--|
C#----------------------------------------------------------------------------|
G#----------------------------------------------------------------------------|
C#----------------------------------------------------------------------------|
Tap to rate this tab
 
# A B C D E F G H I J K L M N O P Q R S T U V W X Y Z