Guitaretab - guitar tabs
Song name
# A B C D E F G H I J K L M N O P Q R S T U V W X Y Z
Home / S / Sparks / Begin tab

Sparks - Begin tab

This is a song that me and my band has made....so rate if it is good...

                           The sparks - begin


Intro:

E-----------------------------------------------------------------|
H-----------------------------------------------------------------|
G--------------------------5-------7------------------------------|
D-------2--------5-----5-------7----------------------------------|
A-----2--------5----3-------5-------------------------------------|
E---0--------3----------------------------------------------------|  X3

Vers: Takt: down down

E---------------------------------------------------------------|
H---------------------------------------------------------------|
G---------------------------------------------------------------|
D---2-2----------5-5---7-7--------------------------------------|
A---2-2----5-5--3-3---5-5---------------------------------------|
E---0-0----3-3--------------------------------------------------|


Refreng:Takt: Nirvana  Smells like teen spirit
[ Tab from: http://www.guitaretab.com/s/sparks/144638.html ]
E----------------------------------------------------------------------------|
H----------------------------------------------------------------------------|
G---------------------------------7-7-7----x-x-x--5-5-5----------------------|
D----2-2-2----x-x-x-5-5-5---------7-7-7----x-x-x--5-5-5----------------------|
A----2-2-2----x-x-x-5-5-5---x-x---5-5-5----x-x-x--3-3-3----------------------|
E----0-0-0----x-x-x-3-3-3---x-x----------------------------------------------|


Bridge: Takt:  down down (fast)

E----------------------------------------------------------------------------|
H----------------------------------------------------------------------------|
G----------------------------------------------------------------------------|
D-----------7-7-7-----5-5-5-----3-3-3----------------------------------------|
A--5-5-5----5-5-5-----3-3-3-----1-1-1----------------------------------------|
E--3-3-3---------------------------------------------------------------------|


Solo:  Fast

E---------------------------7---10b10b10b10b10b------------------------------|
H--------7-8-8pb-7----9------------------------------------------------------|
G---9pb-------------9--------------------------------------------------------|
D--------------------------------------------------------------12-14---------|
A--------------------------------------------------------12-14---------------|
E--------------------------------------------------12-14---------------------|

E---------------14/0--------------------------------------------|
H---------12-15-------------------------------------------------|
G---------------------------------------------------------------|
D---12-14-------------------------------------------------------|
A---------------------------------------------------------------|
E---------------------------------------------------------------|
Related for Begin tab