Song name
# A B C D E F G H I J K L M N O P Q R S T U V W X Y Z

Sparrow House - When I Am Gone tab

Sparrow House - When I Am Gone

Tabbed By: grptertius@yahoo.com
Note: I tabbed this song from a live late show recording:
(http://www.youtube.com/watch?v=anYgCRFSUXQ).
In that version, Jared plays it capo 2nd fret; on the studio version, it's capo 3rd fret.
I also included the late show solo. It's more complicated than the album version, since
incorporates the piano part.

Capo 2nd Fret (notes are relative to capo)

INTRO:

e------------------------------0---------------------------------------------------------|
B------1-------1-------1---------------1-------------------0---0-------1-----------------|
G---0------0-------2-------2-------2-------0---0-------1-----------2-----------0-------2-|
D----2-------0-------2-------2-------2-------------2-----------------2-----0-------3-----|
A-3------2-------0-------0-------0-------------------2-----------0-----------2-------3---|
E----------------------------------------3---1---0-------0---0-----------3-------1-------|

e---------------------------------------------------------|
B---------------------------------------------------------|
G-------2-------2-------2-------2-------2-------2-------2-|
D---3-------3-------3-------3-------3-------3-------3-----|
A-----3-------3-------3-------3-------3-------3-------3---|
E-1-------1-------1-------1-------1-------1-------1-------|


Verse 1: Play the First Line of the INTRO again, then:

e-------------------------|
B-------------------------|
G-------2-------2-------2-|
D---3-------3-------3-----|
A-----3-------3-------3---|
E-1-------1-------1-------|

e---------------------------------------------------------------------------------|
B-------0-------0-------0-------0-------1-------1-------1-------1-------0-------0-|
G---0-------0-------1-------1-------2-------2-------0-------0-------0-------0-----|
D-----0-------0-------2-------2-------3-------3-------2-------2-------0-------0---|
A-------------------------------------------------3-------3-----------------------|
E-3-------3-------0-------0-------1-------1-----------------------3-------3-------|

e-------3---------------1-------1---1---0-------------|
B---------------0---------------------------3---0---0-|
G---0-------0-------0-------0-------------------------|
D-----0-------0-------0-------0-----------------------|
A-----------------------------------------------------|
E-3-------3-------3-------3-------3---3---3---3---3---|


Verse 2: Same as Verse 1, but omit the last line (the one right above this sentence);
play:

e-------3---------------------------------------------------------------3---------|
B---------------0-------1-------1-------1-------1-------0-------0---------------0-|
G---0-------0-------2-------2-------0-------0-------0-------0-------0-------0-----|
D-----0-------0-------3-------3-------2-------2-------0-------0-------0-------0---|
A---------------------------------3-------3---------------------------------------|
E-3-------3-------1-------1-----------------------3-------3-------3-------3-------|


Chorus:

e------------------------------------------------------------------------------------------------|
B-------1-------1-------1-------1-------0-------0-------0-------0-------1-------1-------1-------1|
G---2-------2-------0-------0-------0-------0-------1-------1-------2-------2-------0-------0----|
D-----3-------3-------2-------2-------0-------0-------2-------2-------3-------3-------2-------2--|
A-----------------3-------3-------------------------------------------------------3-------3------|
E-1-------1-----------------------3-------3-------0-------0-------1-------1----------------------|

e---------------------------------------------------------------------------------|
B-------1-------1-------0-------0-------1-------1-------1-------1-------0-------0-|
G---2-------2-------0-------0-------2-------2-------0-------0-------0-------0-----|
D-----2-------2-------0-------0-------3-------3-------2-------2-------0-------0---|
A-0-------0---------------------------------------3-------3-----------------------|
e-----------------3-------3-------1-------1-----------------------3-------3-------|

e--------------------------------------------------------------------|
B-------0-------0-------1-------1-------0-------0-----------0---1----|
G---1-------1-------2-------2-------0-------0-----------2------------|
D-----2-------2-------3-------3-------0-------0-----3----------------|
A-----------------------------------------------------3---------3----|
E-0-------0-------1-------1-------3-------3-------1-------1---1------|


Solo:

e-3---0-------0-----------------0-------0-------------0---------------------0---|
B---------3-------1-----1-------------------1---0---------3---3---------3-------|
G---------------------2-----2-------2---------------1-------------2-------------|
D-----------------------------2-------2-----------------------------2-----------|
A-3-------2-------0-------0-------0-------0---0-----------------0-----0---------|
E-----------------------------------------------0-------0---0-----------3-------|

e-------------------------------------------------------0---------------------------------------|
B---------------------------------0-----0-----------0-------3---1p0-----------------------------|
G-2-----2---------2-----2-------------2-----0---1-------------------2-----------0-------0-2-----|
D-----3-----3---3-----3-----3---3---------------------------------------3---2---------2-------0-|
A-------------3---------------3---------------------------------------------3-------3-----------|
E-1-------1-------1-------1-------3-------------0---------------1-----------------------------3-|

e-----------------------------3-------------------------------1---------|
B-----0-------0-------0---------------0-------0-------0---------------0-|
G-0-------0-------0-------0-------0-------0-------0-------0-------0-----|
D---0-------0-------0-------0-------0-------0-------0-------0-------0---|
A-----------------------------------------------------------------------|
E-------3-------3-------3-------3-------3-------3-------3-------3-------|


Verse 3: Same as Verse 2.


Play Chorus again.


Verse 4 + Outro: Same as Verse 1, but omit the last line and play this instead:

e-------3---------------------------------------------------------------3---------|
B---------------0-------1-------1-------1-------1-------0-------0---------------0-|
G---0-------0-------2-------2-------0-------0-------0-------0-------0-------0-----|
D-----0-------0-------3-------3-------2-------2-------0-------0-------0-------0---|
A---------------------------------3-------3---------------------------------------|
E-3-------3-------1-------1-----------------------3-------3-------3-------3-------|

e----------------------------------------------------|
B-------1-------1-------1-------1-------0-------0----|
G---2-------2-------0-------0-------0-------0--------|
D-----3-------3-------2-------2-------0-------0------|
A-----------------3-------3--------------------------|
E-1-------1-----------------------3-------3----------|
Tap to rate this tab
# A B C D E F G H I J K L M N O P Q R S T U V W X Y Z