Song name
# A B C D E F G H I J K L M N O P Q R S T U V W X Y Z

Sparta - Sans Cosm tab

Help us improve GuitareTab! Take a short survey!
intro [CLEAN]
e---------------------------------------------------------------|
G-5-----5-----5-----5-----5---5---4-----4----4-----4----4---4---|
B---4-----4-----4-----4-------------4-----4----4-----4----------|
D-----2-----2-----2-----2---2---2-----2-----2----2-----2--2---2-|
A---------------------------------------------------------------|
E---------------------------------------------------------------|
Played twice

Clean Chords
e------------------------|
B-2------3-------3-------|
G-x------0-------0-------|
D-2------2-------4-------|
A-4------3-------5-------|
E------------------------|

Distorted Chords (figure out the strums yourself)
e-0--0--0--0--0--------|
B-0--0--0--0--0--------|
G-9--9--6--5--7--------|
D-9--9--6--5--7--------|
A-7--6--4--3--5--------|
E----------------------|

During the verses, play the distorted chords sans distortion

CHORUS (Distorted)
e-0--0--0--0--------|
B-0--0--0--0--------|
G-9--9--5--7--------|
D-9--9--5--7--------|
A-7--6--3--5--------|
E-------------------|

BRIDGE (Distorted)
e------------------|
B------------------|
G-4-----6--8-------|
D-4--2--6--8-------|
A-2--2--4--6-------|
E----0-------------|
Related for Sans Cosm tab