Song name
# A B C D E F G H I J K L M N O P Q R S T U V W X Y Z

Sparta - End Moraine tab

-----------------------------------------------------------------------------
			     End Moraine - Sparta
-----------------------------------------------------------------------------
Tabbed by: Leigh
Email: lazyleroy@hotmail.com
Sparta - End Moraine
i've written this tab in its basic form, listen to the song to figure
out the timing and progression
send me an email with your feedback, positive or negative, whatever you see fit, enjoy
Tuning: Dropped D
Intro Guitar 1
e|9--7--10----------------7-----|
B|----------10-10p9p7--9--------|
G|--------------------------9---|
D|------------------------------|
A|------------------------------|
D|------------------------------|
Guitar 2
e|------------------------------|
B|------------------------------|
G|4--------------------2--4--2--|
D|x-----------------------------|
A|2--------------------0--0--0--|
D|x-----------------------------|
Verse
e|-------------------|
B|-------------------|
G|4------6------5----|
D|--------------5----|
A|2------4------5----|
D|--------------5----|
Chorus
e|--------------------------|
B|--------------------------|
G|9------0------5-----------|
D|9------0------5-----14----|
A|9------0------5-----12----|
D|9------0------5-----12----|
Bridge Part 1/outro
e|---------------------12-----|
B|5----4----7---8---10---10---|
G|----------------------------|
D|----------------------------|
A|----------------------------|
D|----------------------------|
Bridge Part 2 "What your tought...."
e|----------------------|
B|----------------------|
G|6p4-4---2--4--2-------|
D|0-0-0---0--0--0-------|
A|----------------------|
D|----------------------|
Bridge Part 3 "Its exposed...."
e|-----------------------------|
B|-----------------------------|
G|--------------------------0--|
D|-----7--9-----------------0--|
A|7p5-----9-7p5-7p5-7p5-7p5-0--|
D|--------9-----------------0--|
Outro "They'll build armies...."
e|15--14---17---15----14----17|--15---14---19---17----15-----14----17----19-|
B|----------------------------|---------------------------------------------|
G|----------------------------|---------------------------------------------|
D|----------------------------|---------------------------------------------|
A|----------------------------|---------------------------------------------|
D|----------------------------|---------------------------------------------|

e|15--14---17---15----14----17---19b| 
B|----------------------------------|
G|----------------------------------|
D|----------------------------------|
A|----------------------------------|
D|----------------------------------|


| /  slide up
| \  slide down
| h  hammer-on
| p  pull-off
| ~  vibrato
| +  harmonic
| x  Mute note
=============================================================================
Tap to rate this tab
# A B C D E F G H I J K L M N O P Q R S T U V W X Y Z