Song name
# A B C D E F G H I J K L M N O P Q R S T U V W X Y Z

Sparta - Hiss The Villain tab

Help us improve GuitareTab! Take a short survey!
Song:Hiss The Villain
Band:Sparta
Album:Porcelain
Email:flemingoboy@adelphia.net
Tabber:Tom Fleming
Tuning:Standard

Ok I'm on a crusade to do the Porcelain songs that haven't been done on here so... 
the second song I'm doin, Hiss The Villain, not one of my favorites but it's ok.  Then ending 
pretty bomb-ass though.

Jim's Parts
Verse (strum these chords, listen for strumming pattern)
|-------------------------------------------|
|-------------------------------------------|
|-9^----------------------------------------|
|-x-(periodically------2-------4---2--------|
|-7^---bend)-----------2-------4---2--------|
|----------------------0-------2---0--------|

Chorus   (strum cept play the G power chord as shown; G power=xxx553)
|---------------------------------------------------|
|---------------------------------------------------|
|--------7--------------------------5---------------|
|-9------7---------x5--x5--x5--x5---5---------------|
|-9------5---------x5--x5--x5--x5---3---------------|
|-7----------------x3--x3--x3--x3-------------------|

Bridge (strum, listen for strumming pattern)
|-------------------|
|-------------------|
|---5---5-----------|
|-2-5-2-5-5----7----|
|-2-3-2-3-5----7----|
|-0---0---3----5----|

Pre-Outro
|---------------------------------|
|---------------------------------|
|-12~--12-11~--11-12~--12-14~-16~-|
|-x-~--x--x-~--x--x-~--x--x-~-x-~-|
|-10~--10-9-~--9--10~--10-12~-14~-|
|---------------------------------|

Outro- I'm pretty sure Jim doesn't play. Just strings in the background, and I don't 
like tabbing out the notes the strings play.


Paul's Parts
Verse
|-----------------------------------------------------------------|
|-9---------------9-----------------------------------------------|
|-x-9999999999999-x-999999999999-9999999999999-1111-9999999999999-|
|-7-7777777777777-7-777777777777-xxxxxxxxxxxxx-x-x--xxxxxxxxxxxxx-|
|--------------------------------7777777777777-9-9--7777777777777-|
|-----------------------------------------------------------------|

Chorus
|---------------------------12121212--------------------------------|
|-1010101010101010-10101010-10101010--------------------------------|
|-9-9-9-9-9-9-9-9--------------------------------121212121212121212-|
|------------------------------------x5-x5-x5-x5-x-x-x-x-x-x-x-x-x--|
|------------------------------------x5-x5-x5-x5-101010101010101010-|
|------------------------------------x3-x3-x3-x3--------------------|

Bridge
|--------------------------------|
|--------------------------------|
|-12121212121212-----------------|
|-x-x-x-x-x-x-x--5555555-7777777-|
|-10101010101010-5555555-7777777-|
|----------------3333333-5555555-|

Pre Outro- Doesn't play I don't think

Outro
|-191919-171717-151515-171717-141414-151515-121212-141414-111111-121212-|
|-----------------------------------------------------------------------|
|-----------------------------------------------------------------------|
|-----------------------------------------------------------------------|
|-----------------------------------------------------------------------|
|-----------------------------------------------------------------------|
          **Last time end on the high E on the 12th fret             **
|-111111-121212-1111-1212-191919-171717-151515-171717-14h15p14h15p14-12-|
|-----------------------------------------------------------------------|
|-----------------------------------------------------------------------|
|-----------------------------------------------------------------------|
|-----------------------------------------------------------------------|
|-----------------------------------------------------------------------|

Song Order
Verse (2x)
Chorus (2x)
Verse (2x)
Chorus (2x)
Bridge (4x)
Verse (2x)
Chorus (2x)
Bridge (4x)
Pre-Outro (2x)
Outro (3x)

Again e-mail me at my e-mail which is at the top of the page, if you have any 
or corrections.
Related for Hiss The Villain tab