Guitaretab - guitar tabs
Song name
# A B C D E F G H I J K L M N O P Q R S T U V W X Y Z

Sparta - Unstitch Your Mouth tab

e-------------------------------------------------|
B-------------------------------------------------|
G---7--7--7--7-10------12---12---12---12---12-9---|
D-----7--7--7----0---------0----0----0----0----0--|
A-5--5--5--5--8---0/10---10---10---10---10---7--0-|
D-------------------------------------------------|x2

e---------------------------|
B---------------------------|
G---3--3--3--3-2----2--2-/7~|
D-----0--0--0---0-----0-----|
A---------------------------|
D-5--5--5--5--3--30--0--0---|

e-------------------------------------------------|
B-------------------------------------------------|
G---7--7--7--7-10------12---12---12---12---12-9---|
D-----7--7--7----0---------0----0----0----0----0--|
A-5--5--5--5--8---0/10---10---10---10---10---7--0-|
D-------------------------------------------------|x2

e---------------------------------|
B---------------------------------|
G---3--3--3--3-2----2--2-/7~-7--7-|
D-----0--0--0---0-----0--------0--|
A---------------------------------|
D-5--5--5--5--3--30--0--0---0-0---|x2
[ Tab from: http://www.guitaretab.com/s/sparta/80174.html ]
e-------------------------------------------------|
B-------------------------------------------------|
G---7--7--7--7-10------12---12---12---12---12-9---|
D-----7--7--7----0---------0----0----0----0----0--|
A-5--5--5--5--8---0/10---10---10---10---10---7--0-|
D-------------------------------------------------|x2

e---------------------------------|
B---------------------------------|
G---3--3--3--3-2----2--2-/7~-7--7-|
D-----0--0--0---0-----0--------0--|
A---------------------------------|
D-5--5--5--5--3--30--0--0---0-0---|x2

e-------------------------------------------------|
B-------------------------------------------------|
G---7--7--7--7-10------12---12---12---12---12-9---|
D-----0--0--0----0---------0----0----0----0----0--|
A-5--5--5--5--8---0/10---10---10---10---10---7--0-|
D-------------------------------------------------|x2

e--------------------------|
B--------------------------|
G--------------------------|
D-777777881212121212121010-|
A-777777881212121212121010-|
D-777777881212121212121010-|
Do that as much times needed.
e------------------|
B------------------|
G------------------|
D-1212121212121010-|
A-1212121212121010-|
D-1212121212121010-|
Do that as much times needed.
End on
e-----|
B-----|
G-----|
D-0~--|
A-0~--|
D-0~--|
You can use the tremolo bar on the last chord.
Related for Unstitch Your Mouth tab
×
Unstitch Your Mouth