Song name
# A B C D E F G H I J K L M N O P Q R S T U V W X Y Z

Sparta - Atlas tab

this is the electric guitar for Atlas.
Chorus
e-------------------------------------------------12--12--12--12-|
b-12--12--12--12--14--14--14--14--15--15--15--15-----------------|
g---14--14--14--14--14--14--14--14--14--14--14--14--14--14--14---|
d----------------------------------------------------------------|
a----------------------------------------------------------------|
e----------------------------------------------------------------|x3

e----------------------------------|
b-12--12--12--12--14--14--14--14---|
g---14--14--14--14--14--14--14--14-|
d----------------------------------|
a----------------------------------|
e----------------------------------|

e-------------------------------------------------12--12--12--12-|
b-12--12--12--12--14--14--14--14--15--15--15--15-----------------|
g---14--14--14--14--14--14--14--14--14--14--14--14--14--14--14---|
d----------------------------------------------------------------|
a----------------------------------------------------------------|
e----------------------------------------------------------------|
Main Riff
e----4~-|
b-5~----|
g---4~--|
d-------|
a-------|
e-------|
Chorus
e-------------------------------------------------12--12--12--12-|
b-12--12--12--12--14--14--14--14--15--15--15--15-----------------|
g---14--14--14--14--14--14--14--14--14--14--14--14--14--14--14---|
d----------------------------------------------------------------|
a----------------------------------------------------------------|
e----------------------------------------------------------------|x3

e----------------------------------|
b-12--12--12--12--14--14--14--14---|
g---14--14--14--14--14--14--14--14-|
d----------------------------------|
a----------------------------------|
e----------------------------------|

e--------------------------------------------------|
b-12--12--12--12--14--14--14--14--15--15--15--15---|
g---14--14--14--14--14--14--14--14--14--14--14--14-|
d--------------------------------------------------|
a--------------------------------------------------|
e--------------------------------------------------|

e-------------------------------------------------12--12--12--12-|
b-12--12--12--12--14--14--14--14--15--15--15--15-----------------|
g---14--14--14--14--14--14--14--14--14--14--14--14--14--14--14---|
d----------------------------------------------------------------|
a----------------------------------------------------------------|
e----------------------------------------------------------------|
Outro
e------0----0-------------0----0--------|
b-7----5----0--------7----5----0--------|
g-7----6----1--------7----6----1--------|
d-7----7----2--------7----7----2--------|
a-5----7----2--------5----7----2--------|
e------5----0-------------5----0--------|
Tap to rate this tab
# A B C D E F G H I J K L M N O P Q R S T U V W X Y Z