Song name
# A B C D E F G H I J K L M N O P Q R S T U V W X Y Z

Spayed - Neurotic Eustacian Tube tab

-------------------------------------------------------------------------------
			     Neurotic eustacian tube - SPAYED
-------------------------------------------------------------------------------

Author/Artist: Misc Unsigned Bands
Title: spayed - neurotic eustacian tube
Album: 7 inch vinyl Ep.

So here it is one of the best songs on the underground alternative music by this amazing
punk band called SPAYED.(WWW.MYSPACE.COM/SPAYEDMUSIC)
(http://minervacorner.blogspot.com/2008/04/spayed.html)


TUNING: Drop D and Tune the LOW E STRING down 1/2 step (NOTE: i play it on D but i am
too sure what tunning Cecile use on this song)

INTRO: Feedback. (i dont know how to tab it. so you should listen to it so you can come
with something. I am pretty sure Cecile get near the cabs so the guitar would make such feedback)

CECILE plays this throughtout the intro.

|---------------------------------------------------16v=strum down------------------------|
|------------------------------------------------13^=strum up-----------------------------|
|---------------------------------------------17^=strum up--------------------------------|
|----2-2-0-3-0-2-1--0--1-0-1-0-2-3-0-2----------------------------------------------------|
|----2-2-0-3-0-2-1--0--1-0-1-0-2-3-0-2----------------------------------------------------|
|----2-2-0-3-0-2-1--0--1-0-1-0-2-3-0-2----------------------------------------------------|

|---------------------------------------------------19-21v=strum down---------------------|
|------------------------------------------------15^=strum up-----------------------------|
|---------------------------------------------19^=strum up--------------------------------|
|----2-2-0-3-0-2-1--0--1-0-1-0-2-3-0-2----------------------------------------------------|
|----2-2-0-3-0-2-1--0--1-0-1-0-2-3-0-2----------------------------------------------------|
|----2-2-0-3-0-2-1--0--1-0-1-0-2-3-0-2----------------------------------------------------|

Verse.
"What you sold is what you worth...."

|---------------------------------------------------18v=strum down------------------------|
|------------------------------------------------21^=strum up-----------------------------|
|---------------------------------------------16^=strum up--------------------------------|
|----2-2-0-3-0-2-1--0--1-0-1-0-2-3-0-2----------------------------------------------------|
|----2-2-0-3-0-2-1--0--1-0-1-0-2-3-0-2----------------------------------------------------|
|----2-2-0-3-0-2-1--0--1-0-1-0-2-3-0-2----------------------------------------------------|

|---------------------------------------------------16v=strum down------------------------|
|------------------------------------------------19=strum up------------------------------|
|---------------------------------------------12^=strum up--------------------------------|
|----2-2-0-3-0-2-1--0--1-0-1-0-2-3-0-2----------------------------------------------------|
|----2-2-0-3-0-2-1--0--1-0-1-0-2-3-0-2----------------------------------------------------|
|----2-2-0-3-0-2-1--0--1-0-1-0-2-3-0-2----------------------------------------------------|
-
|------------------------------------------------///22strum down--------------------------|
|----------------------------------------------//12=strum up------------------------------|
|--------------------------------------------/15=strum up---------------------------------|
|----2-2-0-3-0-2-1--0--1-0-1-0-2-3-0-2----------------------------------------------------|
|----2-2-0-3-0-2-1--0--1-0-1-0-2-3-0-2----------------------------------------------------|
|----2-2-0-3-0-2-1--0--1-0-1-0-2-3-0-2----------------------------------------------------|

Chorus
"Sun.....(SCREAM)

|---------------------------------------------------16v=strum down------------------------|
|------------------------------------------------13^v=strum down--------------------------|
|---------------------------------------------12^-----------16v=strum down-------19~~-----|
|----2-2-0-3-0-2-1--0--1-0-1-0-2-3-0-2--------------------------------21~-----------------|
|----2-2-0-3-0-2-1--0--1-0-1-0-2-3-0-2----------------------------------------------------|
|----2-2-0-3-0-2-1--0--1-0-1-0-2-3-0-2----------------------------------------------------|

then Cecile play this. (palm-muted and clean, please listen to the song so you wont get lost!)

|-----------------------------------------------------------------------------------------|
|------------------------------x----------------------------------------------------------|
|--------------x-------------x--x------x------x--x--x-------------------------------------|
|----x-x-x-x-0-x-x--0--x-x-x-x-x-x-0------------------------------------------------------|
|----x-x-x-0-0-x-x--0--x---x-----x-0-x-------x--------------------------------------------|
|----x-x-x-x-0-x----0--x---x-------x-x------x--x------------------------------------------|


"Go...

Play verse again.

"Grunge still suck im going home
my dead wife is not enough
i wont lie until you leave
i wont sigh until you die...."


Play Chorus again.

"Die..."


Bridge-Outro.

"Married..."

|---------------------------------------------------19h20v=strum down-----------------------|
|-------------------------------------------------------------------------------------------|
|------------------------------------------------------------19v=strum down-------19(+)-----|
|----1-1-1-1-1-1-1---------------0------------------------------------21(+)-----------------|
|----1-1-1-1-1-1-1---------------0----------------------------------------------------------|
|----1-1-1-1-1-1-1---------------0----------------------------------------------------------|


Bass solo.


Outro-Improv. (the fun part)

Repeat this 8 times. (listen to the song for perfect timing)
|---------------------------------------------------16v=strum down---------------------------|
|--------------------------------------------------------------------------------------------|
|------------8-------------5---------------------------------16v=strum down-------19~~-------|
|----2-0---8-0-1-0--2----5---0-1-0------------------------------------21~--------------------|
|----2-0-6---0-1-0--2--3-----0-1-0-----------------------------------------------------------|
|----2-0-----0-1-0--2--------0-1-0-------6~~~~~~---------------------------------------------|

Make some weird feedback. (Microphone feedback type if possible)


and thats it!

what a great fucking song by SPAYED!


and DONT FORGET TO BUY SPAYED UPCOMING ALBUM!!


ALL QUESTIONS GOES TO annnadie@mail.org


Thanks guys!!
Tap to rate this tab
# A B C D E F G H I J K L M N O P Q R S T U V W X Y Z