Song name
# A B C D E F G H I J K L M N O P Q R S T U V W X Y Z

Spayed - Myoma tab

-------------------------------------------------------------------------------
			     Myoma (27 year old revenge) - SPAYED
-------------------------------------------------------------------------------

Author/Artist: SPAYED (WWW.MYSPACE.COM/SPAYEDMUSIC)
(http://minervacorner.blogspot.com/2008/04/spayed.html)
Title: Myoma (27 seven year old revenge).
Album: Rarities.

for those who wanted to know how to play this song (by the way i know this song as myoma 
it is also know as other names such "second rate-demo or 27 year old revenge".)
oh well the name really doesnt matter, you will have to listen to the song for the correct timing.
and also myoma is way older than Neurotic eustacian tube or any other song on the E-cord EP.
i guess it was release on some rarities tapes.
just listen to this song its fucking mind blowing.


TUNING: Drop C or D and Tune the LOW E STRING down 2 step.

INTRO: Make ramdom noises like glass-breaking noises on the guitar. (i dont know how to tab it.
so you should listen to it so you can come up with something. use the red wich and sans 
at the same time, i dont know just make some bloody feedback)
(im NOT sure what tuning CECILE use on this song but it sounds good on D to me)


Cecile plays this on the intro and verse.


e|-----------------------------------------------------------------------------------------|
B|-----------------------------------------------------------------------------------------|
G|-----------------------------------------------------------------------------------------|
D|----3-3-0-7-7-0-3-3-0--9-0-3-3-0-7-7-0---------------------------------------------------|
A|----3-3-0-7-7-0-4-4-0--8-8-3-3-0-7-7-0---------------------------------------------------|
E|----3-3-0-7-7-0-4-4-0--8-8-3-3-0-7-7-0---------------------------------------------------|

e|-----------------------------------------------------------------------------------------|
B|-----------------------------------------------------------------------------------------|
G|-----------------------------------------------------------------------------------------|
D|----3-3-0-7-7-0-3-3-0--9-0-3-3-0-7-7-0---------------------------------------------------|
A|----3-3-0-7-7-0-4-4-0--8-8-3-3-0-7-7-0---------------------------------------------------|
E|----3-3-0-7-7-0-4-4-0--8-8-3-3-0-7-7-0---------------------------------------------------|

Chorus.

e|---------------------------------------------------6---|+let the feedback ring the hell out of it
B|------------------------------------------------17(+)--|
G|---------------------------------------------22(+)-----|
D|----3-3-3----------------------------------------------|
A|----3-3-3----------------------------------------------|
E|----3-3-3----------------------------------------------|


e|---------------------------------------------------9--|+let the feedback ring the hell out of it
B|------------------------------------------------6(+)--|
G|---------------------------------------------22(+)----|
D|----3-3-3---------------------------------------------|
A|----3-3-3---------------------------------------------|
E|----3-3-3---------------------------------------------|


e|---------------------------------------------------22--|+let the feedback ring the hell out of it
B|------------------------------------------------17(+)--|
G|---------------------------------------------7(+)------|
D|----3-3-3----------------------------------------------|
A|----3-3-3----------------------------------------------|
E|----3-3-3----------------------------------------------|

repeat verse.

repear chorus.

bridge.

e|---------------------------------------------------------------------------------------7--|
B|-------------------------------------------------------------------------------2----------|
G|-13-13-17s14--14-----13--13--17s12-12-----13-13-12s14--13-13s16s17--13s16-19--------------|
D|-x--x--x--x---x------x---x---x--x--x------x--x--x--x---x--x--x--x---x--x--x---------------|
A|-13-13-15s12--12-----13--13--15s10-10-----13-13-10s12--13-13s14s15--13s16-19--------------|
E|------------------------------------------------------------------------------------------|
4strum down

and then the anti-solo (cecile screams befor the solo).
i wont tab it.
just play your best and try to imitate the song.

and then play this for the outro.

---------------------------------------------------------------------------------------------|
---------------------------------------------------------------------------------------------|
---------------------------------------------------------------------------------------------|
-----------------------------------------------------xx-x-7-6~----3-3------------------------|
-----------------------------------------------------xx-x-7-6~----3-3------------------------|
-3h2p3h2p3h2p3h2p2h3p2h3p2h3p2h3p2h3p2h3p2h3p2h3p2---xx-x-7-6~----3-3------------------------|


e|-------------------------------------------------------------------------------------------|
B|-------------------------------------------------------------------------------------------|
G|-------------------------------------------------------------------------------------------|
D|----3-3-3-------7-0------------------------------------------------------------------------|
A|----3-3-3-------7-0------------------------------------------------------------------------|
E|----3-3-3-------7-0------------------------------------------------------------------------|


I hope you guys liked it.
please if you have any request let me know.

i dont know the official lyrics for this song, sorry about that.
anyway have fun.

annnadie@mail.org


thank you guys!
Tap to rate this tab
# A B C D E F G H I J K L M N O P Q R S T U V W X Y Z