Song name
# A B C D E F G H I J K L M N O P Q R S T U V W X Y Z

Spayed - Promotion Of Truth Every Man Is Homosexual tab

Band/Artist: SPAYED (Cecile)
Title: Promotion of truth. (Every man is homosexual)
Off: Seven Inch Vinyl EP.
Info: http://www.last.fm/music/SPAYED/Seven+inch+vinyl+EP+(Unreleased)
      http://www.sonicbids.com/SPAYED
      http://minervacorner.blogspot.com/2008/04/spayed.html
      http://www.minervacorner.com/artists/spayed/comments.html

this song was writing by SPAYED and its off of their 7' Vinyl (Ep)
in my opinion they are of the best band ever. (alternative)
i believe Cecile plays it on Drop A so i tried to tabbed it his way.


drop A (yeah drop A)


Intro:


“PROFESSIONAL ROCK MUSICIANS”


-------------------------------------------------------|
-------------------------------------------------------|
--3-----3-3-------3----------3-------------------------|
--2-2--0-0-3-3--0--2--2--0-0-3-3--2---2----------------|
--2-2--0-0-3-3--0--2--2--0-0-3-3--2-0-2----------------|
--2-2--0-0-3-3--0--2--2--0-0-3-3--2-0-2----------------|
                               x2    -pull the strings-

Verse:

---------------------------------------------------------|
---------------------------------------------------------|
--------x--x-------x----------x--------------------------|
--2-2--0-0-3-3--0--2--2--0-0-3-3--2---2------------------|
--2-2--0-0-3-3--0--2--2--0-0-3-3--2-0-2------------------|
--2-2--0-0-3-3--0--2--2--0-0-3-3--2-0-2------------------|
                               x3    -pull the strings-

Chorus:
“I have been sold”

e-----------------------------------------------------------|
B---------------0-3~-0--------------------------------------|
G---------------------------------------x-------------------|
D--0----6----333-0---------2-2--0-0-3-3-0--2-2--0-3-3—0-4h6-|
A--0--4/--0--333--0--------2-2--0-0-3-3-0--2-2--0-3-3—0-----|
D--0------0--333--0--------2-2--0-0-3-3-0--2-2--0-3-3—0-----|
x4

“Numb”
-------------------------------------------------------|
-------------------------------------------------------|
--------x--x-------x----------x------------------------|
--2-2--0-0-3-3--0--2--2--0-0-3-3--2---2----------------|
--2-2--0-0-3-3--0--2--2--0-0-3-3--2-0-2----------------|
--2-2--0-0-3-3--0--2--2--0-0-3-3--2-0-2----------------|
                              x2    -pull the strings-

SOLO (Use the White Witch noise pedal or use a slide so you can imitate Cecile´s sound)
patience it will take some time for you to achieve the exact sound.
i do not believe Cecile used a slide! i think he rather untune his guitar on the solo to 
that sound.

|------------------------------x----------------------~20s===--/13--22---22-|
|-----12~----0-3~-0----10~12+10===16s===-----x-------+23-------/13---22---22|
|---11~----------------------11-----------x--------+24-----------------23---|
|-10s12s===-------------------13s===---12s10s===12-----------------------24-|
|---------------------------------------------------------------------------|
|---------------------------------------------------------------------------|

|------------------------------------------------------------x-------x---x--|
|---13s===-13~-15---15~---23~---3--7----7--21~----3-7----17s===--3~--3-5--5-|
|--13h=14~----14-15~----17~-23h24--4--7~---+7--3h=7--4-5----17-3h4--4--7-7--|
|------------------------------------5s===----------~22s===--------x--------|
|-----===17s===------------------------6s===------~21s===-------------------|
|----------------------------------------7s===------------------------------|

|------------------------------x----------------------~21s===--/13-24--24---|
|-----12~----0-3~-0----18~17+13===16-----------------+23-22----/13-24-----24|
|---13~----------------------13--------------------+23-----24---------------|
|-14s12s===-------------------13s===---16s16s===16-------------17s===-------|
|------------------------------------------------------------17s===---------|
|---------------------------------------------------------------------------|

|----------------------------x---------------------x------------------x---x-|
|---13s===-17~-17---17~---22~---13--17--7---21~----3-7----17s===--3~-23-0--x|
|--13h=14~----16-16~----17~-23h24--14--17~--+7--3h=7--4-5----17-3h4--24-x-x-|
|------------------------------------15s===----------~22s===--------x-------|
|-----===13s===------------------------16s===------~21s===------------------|
|----------------------------------------17s===-----------------------------|

|------------------------------x----------------------~20s===--/--13-22--xx-|
|-----23~----0-3~-0----10~17+17===19s===-----x-------+23---------/13-22---x-|
|---22~------------------7----13-----------x--------+24----------------21---|
|-21s12s===-------------------13s===---12s10s===12-----------------------21-|
|---------------------------------------------------------------------------|
|---------------------------------------------------------------------------|

“Steal the crown (sold and gone)”
-------------------------------------------------------|
-----------------------x-------------------------------|
--------x--x-------x----------x------------------------|
--2-2--0-0-3-3--0--2--2--0-0-3-3-----------------------|
--2-2--0-0-3-3--0--2--2--0-0-3-3-----------------------|
--2-2--0-0-3-3--0--2--2--0-0-3-3-----------------------|
                              x7    -break the strings-


and im done!

Im Courtney, thanks.
(RIOTANARCHY@MAIL.COM)

(European Tour)

SPAYED hit Europe. (THE DOWNFALL OF EUROPE)
Sunday 7 February 2010

Around the UK.
Liverpool
United Kingdom
DOWNFALL OF EUROPE.
Tap to rate this tab
# A B C D E F G H I J K L M N O P Q R S T U V W X Y Z