Song name
# A B C D E F G H I J K L M N O P Q R S T U V W X Y Z

Spayed - 27 Year Old Revenge tab

Band/Artist: SPAYED (Cecile)
Title: 27 year old revenge.
Off: Seven Inch Vinyl EP. 
Info: http://www.last.fm/music/SPAYED/Seven+inch+vinyl+EP+(Unreleased) 
      http://www.sonicbids.com/SPAYED
      http://minervacorner.blogspot.com/2008/04/spayed.html
      http://www.minervacorner.com/artists/spayed/comments.html
      http://www.last.fm/group/SPAYED


this song was writing by SPAYED and its off of their 7' Vinyl (Ep)
"27 year old revenge" along with 
"Widows are always late" caused a revolution  
in the underground punk rock scenes in Europe and America.
(it is well known that during a riot on Washington d.c 
while most of the teenagers/people 
where fighting back the anti-riot police this song 
"27 year old revenge" was being play out loud. 
several other people claim 
it was all the ep played repeatedly times on that day)


Tunning
D# D# C# C# G G

How to tune: Ed1 Ad6 Dd1 Gd6 Bd4 Ed9 


Intro: first of all try to use an slide for the "lighting Hopkins"-like blues intro.
(Im pretty sure Cecile tune on D# D# C# C# G G and not on E E B E G# B like most people believe)


|--------------0--x---------0---x---------------------------------------------|
|-----2(+)---2h4--4~~~~~--2h4---4~~~~~-----------------------1=S=2=S=4(~~~~~~)|
|----------------------------------------------------------4------------------|
|------------------------------------------------------2----------------------|
|--------------------------------------------------4--------------------------|
|----------------------------------------------2------------------------------|


|--------------0--x---------0---x---------------------------------------------|
|------------/4---------------------------------------------------------------|
|----------------------------------------------------------4------------------|
|---5-5--x-----------5-5-----2~~--4~~-------------------2---------------------|
|---5-5---4(~~~~~~~)-5-5--4~~------------------------4------------------0-----|
|---1-1--------------1-1--------------------------2---------------------------|


|--------------0--x---------0---x---------------------------------------------|
|------------/4----------------------------------------------1=S=2=S=4(~~~~~~)|
|----------------------------------------------------------4------------------|
|---5-5--x-----------5-5-----2~~--4~~-------------------2---------------------|
|---5-5---4(~~~~~~~)-5-5--4~~------------------------4------------------------|
|---1-1--------------1-1--------------------------2---------------------------|


|--------------0--x---------0---x---------------------------------------------|
|------------/4---------------------------------------------------------------|
|----------------------------------------------------------4------------------|
|---5-5--x-----------5-5-----2~~--4~~------------------2----------------------|
|---5-5---4(~~~~~~~)-5-5--4~~----------------------------4---------------0----|
|---1-1--------------1-1--------------------------2---------------------------|

(x): you need to play this part like a really bad blues-guitar player...
(Cecile plays this part mediocre)
|-----------------------------------------------------------------------------|
|--------------------------------------------------------------7=S=3(~~~~~~~~)|
|----------------------------------------------------------4(x)---------------|
|-------------------------------------------x-----------2(x)------------------|
|------4~~~~4~~~~~-----4(x)-------4(x)---x------------------4-----------------|
|---2--------------2---------2(x)--------------------2(x)--4(x)---------------|


|-------------------x--------------x------------------------------------------|
|-----3=S=6---2=S=4--4~~~~~--2=S=4---4~~~~~------------------1=S=2=S=4(~~~~~~)|
|----------------------------------------------------------4~~~~--3-----------|
|------------------------------------------------------2~~~-1~~~--3-----------|
|--------------------------------------------------4(X)--2~~~-----------------|
|----------------------------------------------2(X)---------------------------|

|-------------------x--7------------x---7(~~~~~~~~~~)-----20---------------7+-|
|-----6(x)---2=S=4--4~~~~~--4---4~~~~~------------------21(x)22---22=23(~~~~~)|
|---------6-------------------6-----------6-------------------22~~~~----7(x)--|
|---------------------------------------------7----------22~~~-21~~~----7(x)--|
|--------------6-------------------6-----------------23(X)--2~~~--------------|
|----------------------------------------------22(X)--------------------------|

|-----------------------------------------------------------------------------|
|-----------------------------------------------------------------------------|
|------------------------------1~~~~~~~~~~~~~~~~~~~~~~~~~~~~~~~~~~~~~~~~~~~~~~|
|-----------------------------------------------------------------------------|
|---------------------------9~~~~~~~~~~~~~~~~~~~~~~~~~~~~~~~~~~~~~~~~~~~~~~~~~|
|--------1--9-----------------------------------------------------------------|

and now the "PUNK-crescendo" part of 27 year old revenge 
(00:40)(this part is amazing)
but sadly if you listen to the song
 you will agree with me 
this next part is almost impossible to tab.
just make as much noise as you can 
and try hard to follow to Cecile's riffs.
i do believe Cecile tune down to almost Drop A on this part (only E sting)

|-----------------------------------------------------------------------------|
|-----------------------------------------------------------------------------|
|-----------------------------------------------------------------------------|
|-----------------------------------------------------------------------------|
|-----------------------------------------------------------------------------|
|-0===Untune all the way down====---------------------------------------------|



|-----------------------------------------------------------------------------|
|-----------------------------------------------------------------------------|
|----------------7(~~~~~~~~~~~~~~~~~~~~~~~~~~~~~~~~~~~~~~~~~~~~~~~~~~~~~~~~~~)|
|-----------------------------------------------------------------------------|
|-----------------------------------------------------------------------------|
|-0===Untune all the way down====---------------------------------------------|


"Im not a crawler..."

|---------------------------x-----------------------------------------------00|
|---------------------------------------------------------------------------00|
|-3-4-3-4-----x-x---1--2-1-2-1----x-x---3-4-2-0-3----x-x---3-4-3-4-1-2------00|
|-3-4-3-4----x-x-x--1--2-1-2-1---x-x-x--3-4-2-0-3---x-x-x--3-4-3-4-1-2------00|
|-0-0-0-0-22~~~~~~~-0--0-0-0-0-22~~~~~~-0-0-0-0-0-22~~~~~~-0-0-0-0-0-0-00~~~00|
|-0-0-0-0-22~~~~~~~-0--0-0-0-0-22~~~~~~-0-0-0-0-0-22~~~~~~-0-0-0-0-0-0-00~~~00|

|-00--------------------------------------------------------------x-----------|
|-00----------------------------------------------------(/)19~~~--------------|
|-00---x-----1--2-1-2-1----x-x---3-4-2-0-3(~~~~~)-------------(/)9~~~---------|
|-00-x-------1--2-1-2-1---x-x---0-3-0-4h3-5--2-3-2-6-2h----------------1------|
|-00-3~~~~~~~~~~~~~~~~~~~~~~~~~~~~~~~~~~~~~~~~~~~~~~~~~~~~~~~~~~~~~~~~~~~~~~00|
|-00-3~~~~~~~~~~~~~~~~~~~~~~~~~~~~~~~~~~~~~~~~~~~~~~~~~~~~~~~~~~~~~~~~~~~~~~00|

|---------------------------x-----------------------------------------------00|
|---------------------------------------------------------------------------00|
|-3-4-3-4-----x-x---1--2-1-2-1----x-x---3-4-2-0-3----x-x---3-4-3-4-1-2------00|
|-3-4-3-4----x-x-x--1--2-1-2-1---x-x-x--3-4-2-0-3---x-x-x--3-4-3-4-1-2------00|
|-0-0-0-0-22~~~~~~~-0--0-0-0-0-22~~~~~~-0-0-0-0-0-22~~~~~~-0-0-0-0-0-0-00~~~00|
|-0-0-0-0-22~~~~~~~-0--0-0-0-0-22~~~~~~-0-0-0-0-0-22~~~~~~-0-0-0-0-0-0-00~~~00|

|-00--------------------------------------------------------------x-----------|
|-00----------------------------------------------------(/)19~~~--------------|
|-00---x-----1--2-1-2-1----x-x---3-4-2-0-3(~~~~~)-------------(/)9~~~---------|
|-00-x-------1--2-1-2-1---x-x---0-3-0-4h3-5--2-3-2-6-2h----------------1------|
|-00-3~~~~~~~~~~~~~~~~~~~~~~~~~~~~~~~~~~~~~~~~~~~~~~~~~~~~~~~~~~~~~~~~~~~~~~00|
|-00-3~~~~~~~~~~~~~~~~~~~~~~~~~~~~~~~~~~~~~~~~~~~~~~~~~~~~~~~~~~~~~~~~~~~~~~00|


|---------------------------x-----------------------------------------------00|
|---------------------------------------------------------------------------00|
|-3-4-3-4-----x-x---1--2-1-2-1----x-x---3-4-2-0-3----x-x---3-4-3-4-1-2------00|
|-3-4-3-4----x-x-x--1--2-1-2-1---x-x-x--3-4-2-0-3---x-x-x--3-4-3-4-1-2------00|
|-0-0-0-0-22~~~~~~~-0--0-0-0-0-22~~~~~~-0-0-0-0-0-22~~~~~~-0-0-0-0-0-0-00~~~00|
|-0-0-0-0-22~~~~~~~-0--0-0-0-0-22~~~~~~-0-0-0-0-0-22~~~~~~-0-0-0-0-0-0-00~~~00|

"I got no home..."
|-----------------------------------------------------------------------------|
|-----------------------------------------------------------------------------|
|-----------------------------------------------------------------------------|
|-----------------------------------------------------------------------------|
|-1-2-1-0-//1~~~~~~~~~~~~~~~~~~~~~~~~~~~~~~~~~~~~~~~~~~~~~~~~~~~~~~~~~~~~~~~~~|
|-1-2-1-0-//1~~~~~~~~~~~~~~~~~~~~~~~~~~~~~~~~~~~~~~~~~~~~~~~~~~~~~~~~~~~~~~~~~|


"Stoned..."

|-----------------------------------------------------------------------------|
|-----------------------------------------------------------------------------|
|-----------------------------------------------------------------------------|
|-----------------------------------------------------------------------------|
|--22~~~~~~~~~~~~~~~~~~~~~~~~~~~~~~~~~~~~~~~~~~~~~~~~~~~~~~~~~~~~~~~----------|
|--22~~~~~~~~~~~~~~~~~~~~~~~~~~~~~~~~~~~~~~~~~~~~~~~~~~~~~~~~~~~~~~~----------|

|------------------------------------------2(~~~~~~~~~)-----------------------|
|--------------------------2(~~~~~~~~~~~)------7(~~~~~~~~~)-------------------|
|--------------------------------7(~~~~~~~~~~~)-------------------------------|
|-----------------------------------------------------------------------------|
|~~~~~~~~~~~~~~~~~~~~~~~~~~~~~~~~~~~~~~~~~~~~~~~~~~~~~~~~~~~~~~~--------------|
|~~~~~~~~~~~~~~~~~~~~~~~~~~~~~~~~~~~~~~~~~~~~~~~~~~~~~~~~~~~~~~~--------------|

"yeeaaahh..."

|------------------------------------------2(~~~~~~~~~)-----------------------|
|--------------------------2(~~~~~~~~~~~)------7(~~~~~~~~~)-------------------|
|--------------------------------7(~~~~~~~~~~~)-------------------------------|
|-----------------------------------------------------------------------------|
|~~~~~~~~~~~~~~~~~~~~~~~~~~~~~~~~~~~~~~~~~~~~~~~~~~~~~~~~~~~~~~~--------------|
|~~~~~~~~~~~~~~~~~~~~~~~~~~~~~~~~~~~~~~~~~~~~~~~~~~~~~~~~~~~~~~~--------------|

"Sore..."

|-----------------------------------------------------------------------------|
|-----------------------------------------------------------------------------|
|-----------------------------------------------------------------------------|
|-----------------------------------------------------------------------------|
|--22~~~~~~~~~~~~~~~~~~~~~~~~~~~~~~~~~~~~~~~~~~~~~~~~~~~~~~~~~~~~~~~----------|
|--22~~~~~~~~~~~~~~~~~~~~~~~~~~~~~~~~~~~~~~~~~~~~~~~~~~~~~~~~~~~~~~~----------|

|------------------------------------------2(~~~~~~~~~)-----------------------|
|--------------------------2(~~~~~~~~~~~)------7(~~~~~~~~~)-------------------|
|--------------------------------7(~~~~~~~~~~~)-------------------------------|
|-----------------------------------------------------------------------------|
|~~~~~~~~~~~~~~~~~~~~~~~~~~~~~~~~~~~~~~~~~~~~~~~~~~~~~~~~~~~~~~~--------------|
|~~~~~~~~~~~~~~~~~~~~~~~~~~~~~~~~~~~~~~~~~~~~~~~~~~~~~~~~~~~~~~~--------------|

"yeeaaahh..."

|------------------------------------------2(~~~~~~~~~)-----------------------|
|--------------------------2(~~~~~~~~~~~)------7(~~~~~~~~~)-------------------|
|--------------------------------7(~~~~~~~~~~~)-------------------------------|
|-----------------------------------------------------------------------------|
|~~~~~~~~~~~~~~~~~~~~~~~~~~~~~~~~~~~~~~~~~~~~~~~~~~~~~~~~~~~~~~~--------------|
|~~~~~~~~~~~~~~~~~~~~~~~~~~~~~~~~~~~~~~~~~~~~~~~~~~~~~~~~~~~~~~~--------------|

this is the heavy-breakthrough,
 Cecile plays something like..
(NOte: i don't really know what kind of 
pedal Cecile use on this part
but it sounds like hell and heaven) 
maybe Steve Albini knows.

|-----------------------------------------------------------------------------|
|------------7+==Make it Ring==-------------7~==Vibrato==---------------------|
|-----------------------------------------------------------------------------|
|-----------------------------------------------------------------------------|
|--2~3~~~~~~~~~~~~~~~~~~~~~~~~~~1~2~~~~~~~~~~~~~~~~~~~~~~~~~~~2~3-------------|
|--2~3~~~~~~~~~~~~~~~~~~~~~~~~~~1~2~~~~~~~~~~~~~~~~~~~~~~~~~~~2~3-------------|

and before we go back to the blues
Cecile untune all the way down again 


|-----------------------------------------------------------------------------|
|-----------------------------------------------------------------------------|
|-----------------------------------------------------------------------------|
|-----------------------------------------------------------------------------|
|-----------------------------------------------------------------------------|
|-0===Untune all the way down====---------------------------------------------|


and after the guitar died we go back to the blues...


|---------------0--x---0------0---x--------------------------7--7-------------|
|--------------/4~~~~~/4~~~~/4~~~~~/---------------------2(x)-----2=S=7(~~~~~~|
|---------------------------------------------------0(x)--------2h====--------|
|----------------------------------------------7(x)---------------------------|
|-----------------------------------------2(X)----------7h=====---------------|
|-----------------------------------7(x)--------------------------------------|


|---------------0--x---0------0---x--------------------------7--7-------------|
|--------------/7~~~~~/7~~~~/7~~~~~/---------------------7(x)---------x-------|
|---------------------------------------------------0(x)--------2h====--------|
|----------------------------------------------7(x)---------------------------|
|-----------------------------------------7(X)----------7h=====---------------|
|-----------------------------------7(x)--------------------------------------|

Cecile broke the E sting at the end.



"SPAYED's first Seven Inch Vinyl EP 
is the best Seven Inch Vinyl ever released"

Metro-KOOL


Im Courtney, thanks.
(RIOTANARCHY@MAIL.COM)

(European Tour)

SPAYED hit Europe. (THE DOWNFALL OF EUROPE)
Sunday 7 February 2010

Around the UK.
Liverpool
United Kingdom
DOWNFALL OF EUROPE.


Tap to rate this tab
 
# A B C D E F G H I J K L M N O P Q R S T U V W X Y Z