Song name
# A B C D E F G H I J K L M N O P Q R S T U V W X Y Z

Spayed - Myomaa Feminist Type Of Cancer tab

Band/Artist: SPAYED (Cecile)
Title: Myoma.(A feminist type of cancer)
Off: E-core Tapes. 
Info: http://www.last.fm/music/SPAYED/Seven+inch+vinyl+EP+(Unreleased) 
      http://www.sonicbids.com/SPAYED
      http://minervacorner.blogspot.com/2008/04/spayed.html
      http://www.minervacorner.com/artists/spayed/comments.html
      http://www.last.fm/group/SPAYED


this song was writing by SPAYED and its off of their E-core Tapes (1999-?)
"Myoma" (a feminist type of cancer) 
this song along with seven more (?) were only distributed on tapes.
many people claim the E-core tapes by SPAYED 
could be worth now as much as one hundred dollars. 
Raping Ears with Indie Tracks released several pictures
taken to a tape (E-core) bought in the states 
and donated to them by an unknown SPAYED fan.
Cecile wrote his most artistic lyrics
on this E-Core Tape.


Tunning
D# D# C# C# G B

How to tune: Ed1 Ad6 Dd1 Gd6 Bd4 Ed5 
(NOTE: This is NOT Drop d)

Intro: first of all this is the most accurate 
version of Myoma (a feminist type of cancer) 
there's another version
of this song around, but it is more 
likely to be completely inaccurate.



Intro

"arising from your awareness and not from your ignorance..."

|-------------7(+)------22(+)--X---------22(+)---/3----------------------------|
|----------3(+)-----17(+)----1(+)--------------------/3-----------------13(+)--|
|---x--7(+)----x-7(+)-------X-------17(+)---------------/3---------------------|
|-x---x------x--x--------7(+)------------------------------------1-9-----------|
|-7-0-3------6-0-3---7-0-3---6~~~~~~-----0---------------------------9/4----9/4|
|-7-0-3------6-0-3---7-0-3---6~~~~~~----0---------------------7-----------19~~~|




|------------------1(+)-------0---x-------------------------------1(~)---------|
|---------------------9/0------------------------------------------------------|
|--------------3(+)----------------------------------------------3---9(~)------|
|---9-3--------------------9===----2~~--4~~-------------------8----------9(~)--|
|---7-1---7(+)--------------4~~------------------------9---------------------0-|
|---7-1----------------------------------------1-------------------------------|


|--------------0--x-----1----0---x---------------------------------------------|
|------------/--------------------------------------------------------7(~~~~~~)|
|--------------9----9--------------------------------------------3-------------|
|--------x--9-----9--------//9h1-----7~~--9~~------------------8---------------|
|------1---4(~~~~~~~)---1-9------7~~--------------------9----------------------|
|--------------------1-1------------------------1------------------------------|
                                                                          
                                                                          [x 7]


|-------------7(+)------22(+)--X---------22(+)---/3----------------------------|
|----------3(+)-----17(+)----1(+)--------------------/3-----------------13(+)--|
|---x--7(+)----x-7(+)-------X-------17(+)---------------/3---------------------|
|-x---x------x--x--------7(+)------------------------------------1-9-----------|
|-7-0-3------6-0-3---7-0-3---6~~~~~~-----0---------------------------9/4----9/4|
|-7-0-3------6-0-3---7-0-3---6~~~~~~----0---------------------7-----------19~~~|
                                                                   

"I don't think i have enough feelings to sell..."

|---------------------------------------------------------------------0-------|
|---------------------------------------------7(and than untune this string)--|
|-----------------------------------------------------------------------------|
|-----------------------------------------------------------------------------|
|-----------------------------------------------------------------------------|
|---------------------------------------------------------------9(x)----------|


"I don't think i have enough feelings to sell..."

|-----------------------1h9(x)----------------------------------------0-------|
|-----------------------------------------------------------------------------|
|-----------------------------------------------------------------------------|
|-----------------------------------------------------------------------------|
|-----------------------------------------------------------------------------|
|---------------------------------------------------------------9(x)----------|


heres the when part Cecile screams his lungs out
Cecile hits random notes (i believe) while he screams..

"yeeaaahhhh..."

|-------19+----------18===--9h1----23h-----6---0--------17---17~--17hx--x===--|
|---19~--~9h1===----17~---20~--13---17h====---~19~+10/19--19---17-------0-23==|
|--------19h=19~---16----19~----23~--21--x--14------+7=-----17---19~-13+------|
|----------------1h===9----19h===----------x--22--------17----19----------~17s|
|------------------------------------16~------20+-----------------------------|
|----------------------------------------------------------------------------0|


|-------15+----------18===--19----9h1h-----6---0--22h-------15~---17h--x------|
|~17h===----17~---22~-13---17h====---~10~12+1019--4---------------------------|
|--------17h=14~---16----13~----23~--21---14-------+7=----18--16~----13h14~16+|
|----------------17h===----19h===---------22---------17-----19----------------|
|------------------------------------16~------20+-----------------0-----------|
|0---------------------------------------------------------------------------0|


|-------9/1----------18===--19----23h-----6---0--22h---16--15~--17h--x--x-----|
|---19~----7h===----17~---22~-13---17h====---~10(~)12+1019--4--17-----19-9h4--|
|-----------------------------------------------------------------------------|
|------------------------------------19~------9//0----------------------------|
|2----------------------------------------------------------------------------|
|0----------------------------------------------------------------------------|


|-----------------------------------------------------------------------------|
|----------------------------------------------7~~~~~~~~~~~~~~~~~~~~~~~~~~~~~~|
|----------------------------------------------7~~~~~~~~~~~~~~~~~~~~~~~~~~~~~~|
|-----------------------------------------------------------------------------|
|-----------------------------------------------------------------------------|
|(pull this string)~~~~~~~~~~~~~~~~~~~~~~~~~~~~~~~~~~~~~~~~~~~~~--------------|


|-----------------------------------------------------------------------------|
|~~~~~~~~~~~~~~~~~~~~~~~~~~~~~~~~~~~~~~~~~~~~~~~~~~~~~~~~~~~~~~~~~~~~~~~~~~~~~|
|~~~~~~~~~~~~~~~~~~~~~~~~~~~~~~~~~~~~~~~~~~~~~~~~~~~~~~~~~~~~~~~~~~~~~~~~~~~~~|
|-----------------------------------------------------------------------------|
|-----------------------------------------------------------------------------|
|-----------------------------------------------------------------------------|


Cecile play this during the last verse.
(over and over again) 

"heavens to betsy is more than enough..."


|---1-------1(x)-------1(x)-------1(x)---------0-------0-------0-------0------|
|-------3(x)-------3(x)-------3(x)-------3---------1-------1-------0--------0-|
|-----2(x)-------2(x)-------2(x)-------2---------2(x)----2-------0-------0----|
|-0---------------0------------------------------------2(x)-------------------|
|---------0---------------0------------------0---------------2(x)-------------|
|------------------------------------------------------------------3(x)-------|


"and now im just done..."



|---1-------1(x)-------1(x)-------1(x)---------0-------0-------0-------0------|
|-------3(x)-------3(x)-------3(x)-------3---------1-------1-------0--------0-|
|-----2(x)-------2(x)-------2(x)-------2---------2(x)----2-------0-------0----|
|-0---------------0------------------------------------2(x)-------------------|
|---------0---------------0------------------0---------------2(x)-------------|
|------------------------------------------------------------------3(x)-------|


Try to do some heavy-violently feedback at the end until the guitar die.


"SPAYED's first Seven Inch Vinyl EP is the best Seven Inch Vinyl ever released"

Metro-KOOL 


Im Courtney, thanks.
(RIOTANARCHY@MAIL.COM)

-I would like to thank Eugene for his help.
and for letting me have/listen Myoma.(A feminist type of cancer)

(European Tour)

SPAYED hit Europe. (THE DOWNFALL OF EUROPE)
Sunday 7 February 2010

Around the UK.
Liverpool
United Kingdom
DOWNFALL OF EUROPE.


Tap to rate this tab
# A B C D E F G H I J K L M N O P Q R S T U V W X Y Z