Song name
# A B C D E F G H I J K L M N O P Q R S T U V W X Y Z

Spazz - Crocket tab

SPAZZ - CROCKET

e|-----------------------|
B|-----------------------|
G|-----------------------|
D|-6666-6666-00-33-00-33-| 1,3
A|-6666-6666-00-33-00-33-|
D|-6666-6666-00-33-00-33-|

e|-----------------------|
B|-----------------------|
G|-----------------------|
D|-6666-6666-0-0-0-3-3-3-| 2,4
A|-6666-6666-0-0-0-3-3-3-|
D|-6666-6666-0-0-0-3-3-3-|

e|--------------------------------------|
B|--------------------------------------|
G|--------------------------------------|
D|-5-5-5-6-6-6-0-0-0-3-3-3-5---6--5--3--|
A|-5-5-5-6-6-6-0-0-0-3-3-3-5---6--5--3--|
D|-5-5-5-6-6-6-0-0-0-3-3-3-5---6--5--3--|

e|-------------------------|
B|-------------------------|
G|-------------------------|
D|-0-0-0-3-3-3-5-5-5-6-6-6-| 1,3
A|-0-0-0-3-3-3-5-5-5-6-6-6-|
D|-0-0-0-3-3-3-5-5-5-6-6-6-|

e|----------------------|
B|----------------------|
G|----------------------|
D|-000-333-555-6--5--3--| 2,4
A|-000-333-555-6--5--3--|
D|-000-333-555-6--5--3--|

e|-----------------------------------|
B|-----------------------------------|
G|-555555-666666-555555-666-6--5--3--|
D|-555555-666666-555555-666-6--5--3--| x2
A|-333333-444444-333333-444-4--3--1--|
D|-----------------------------------|

e|-------------------------|
B|-------------------------|
G|-------------------------|
D|-0-0-0-3-3-3-5-5-5-6-6-6-| 1,3
A|-0-0-0-3-3-3-5-5-5-6-6-6-|
D|-0-0-0-3-3-3-5-5-5-6-6-6-|

e|----------------------------|
B|----------------------------|
G|----------------------------|
D|-0-0-0-3-3-3-5-5-5-6--5--3--| 2,4
A|-0-0-0-3-3-3-5-5-5-6--5--3--|
D|-0-0-0-3-3-3-5-5-5-6--5--3--|

e|-----------------------|
B|-----------------------|
G|-----------------------|
D|-5555-6666-0-0-0-3-3-3-| x2
A|-5555-6666-0-0-0-3-3-3-|
D|-5555-6666-0-0-0-3-3-3-|

e|---------------------------|
B|---------------------------|
G|---------------------------|
D|-6666-6666-0-0-3-3-0-0-3-3-|
A|-6666-6666-0-0-3-3-0-0-3-3-|
D|-6666-6666-0-0-3-3-0-0-3-3-|


e|---------------|
B|---------------|
G|---------------|
D|-0-0-0-3-3-3-6-| 
A|-0-0-0-3-3-3-6-|
D|-0-0-0-3-3-3-6-|
Tap to rate this tab
# A B C D E F G H I J K L M N O P Q R S T U V W X Y Z