Song name
# A B C D E F G H I J K L M N O P Q R S T U V W X Y Z

Spazz - Campaign For The Complete And Utter Eradication Of All Generic Pop Punk tab

SPAZZ - CAMPAIGN FOR THE COMPLETE AND UTTER ERADICATION OF ALL GENERIC POP PUNK

e|-------------------------|
B|-------------------------|
G|-------------------------|
D|-5-3-3-3-2-2-5-3-3-3-5-2-| x2
A|-5-3-3-3-2-2-5-3-3-3-5-2-|
D|-5-3-3-3-2-2-5-3-3-3-5-2-|

e|-------------------------------|
B|-------------------------------|
G|-------------------------------|
D|-5-3-3-3-3-2-2-2-5-3-3-3-3-5-2-|
A|-5-3-3-3-3-2-2-2-5-3-3-3-3-5-2-|
D|-5-3-3-3-3-2-2-2-5-3-3-3-3-5-2-|

e|---------------------|
B|---------------------|
G|---------------------|
D|-0000-666666-33-6666-|
A|-0000-666666-33-6666-|
D|-0000-666666-33-6666-|

e|---------------------|
B|---------------------|
G|---------------------|
D|-0000-666666-00-7777-|
A|-0000-666666-00-7777-|
D|-0000-666666-00-7777-|

e|-------------------------|
B|-------------------------|
G|-------------------------|
D|-0000-6666-9999-10101010-|
A|-0000-6666-9999-10101010-|
D|-0000-6666-9999-10101010-|

e|--------------------------|
B|--------------------------|
G|--------------------------|
D|-77-66-9999-10101010-9999-|
A|-77-66-9999-10101010-9999-|
D|-77-66-9999-10101010-9999-|

e|---------------------|
B|---------------------|
G|---------------------|
D|-0000-4444-3430-6666-| x3
A|-0000-4444-3430-6666-|
D|-0000-4444-3430-6666-|

e|---------------------|
B|---------------------|
G|---------------------|
D|-5-3-3-3-2-2-5-3-3-6-|
A|-5-3-3-3-2-2-5-3-3-6-|
D|-5-3-3-3-2-2-5-3-3-6-|
Tap to rate this tab
# A B C D E F G H I J K L M N O P Q R S T U V W X Y Z