Song name
# A B C D E F G H I J K L M N O P Q R S T U V W X Y Z

Spazz - Your Very Own Comp Song tab

SPAZZ 
Your very own comp song

my favorite spazz song.
good all the way through, funny lyrics, less than a minute.
Rock on, SPAZZ!
And unlike most spazz songs, this one is in standard tuning, instead of
drop D.


Intro PT 1
|--------------------------------------------|
|--------------------------------------------|
|--------------------------------------------|
|-5-5------------------5-5-------------------|
|-5-5------------------5-5-------------------|
|-3-3------------------3-3-------------------|

Intro PT 2/Verse
|-------------------------------------------|
|-------------------------------------------|
|-------------------------------------------|
|-5-5-55-77-55-88-55-7-5-5-55-77-55-88-55-7-|
|-5-5-33-55-33-66-33-5-5-5-33-55-33-66-33-5-|
|-3-3------------------3-3------------------|

Fill
|-----|
|-----|
|-----|
|-5-5-|
|-5-5-|
|-3-3-|


Bridge Part 1
|---------------------------------------|
|---------------------------------------|
|-22---33---44---55---------------------|
|-22---33---44---55---22---33---44---55-|
|-00---11---22---33---22---33---44---55-|
|---------------------00---11---22---33-|

Bridge Part 2
|---------------------------------2~~-|
|-------------------------------3-----|
|-22---33---44---55-------------------|
|-22---33---44---55---22---33---------|
|-00---11---22---33---22---33---------|
|---------------------00---11---------|

Bridge Bridge
|-------------|
|-------------|
|-------------|
|-55775588557-|
|-33553366335-|
|-------------|

song order

Intro Pt 1 x1
Intro pt 2/Verse x1
Intro pt 2/Verse x3
Fill x1
Bridge Part 1 x3
Bridge Part 2 x1
Bridge Bridge x1
Intro pt 2/Verse x1
Fill x1

questions comments and flattery accepted at hella-address@sbcglobal.net
Tap to rate this tab
# A B C D E F G H I J K L M N O P Q R S T U V W X Y Z