Song name
# A B C D E F G H I J K L M N O P Q R S T U V W X Y Z

Spazz - Knuckle Scraper tab

Knuckle scraper
SPAZZ
Drop D tuning

|-------------------|
|-------------------|
|-------------------|
|-10--7--9--8-4-3-2-| x6
|-10--7--9--8-4-3-2-|
|-10--7--9--8-4-3-2-|

|----------------------------------|
|----------------------------------|
|----------------------------------|
|-8-8-8-8-5-5-5-5-1010101010101010-| x4
|-8-8-8-8-5-5-5-5-1010101010101010-|
|-8-8-8-8-5-5-5-5-1010101010101010-|

|-------------------|
|-------------------|
|-------------------|
|-10--7--9--8-4-3-2-| x1
|-10--7--9--8-4-3-2-|
|-10--7--9--8-4-3-2-|

questions, comments, toxic_molar@yahoo.com
Tap to rate this tab
 
# A B C D E F G H I J K L M N O P Q R S T U V W X Y Z