Song name
# A B C D E F G H I J K L M N O P Q R S T U V W X Y Z

Speakerbox - Hit The Bass tab

should be pretty easy for anyone.
here we go.

Verse:

3x:
e|---------------------------------------------------------------------------|
B|---------------------------------------------------------------------------|
G|---------------------------------------------------------------------------|
D|---------------------------------------------------------------------------|
A|---------8-8----------------5----------------------------------------------|
E|---5/6---6-6--------5\3-----3----------------------------------------------|

then
e|---------------------------------------------------------------------------|
B|---------------------------------------------------------------------------|
G|---------------------------------------------------------------------------|
D|---------------------------------------------------------------------------|
A|----3-3-3-3------------3-3-3-3---------------------------------------------|
E|----1-1-1-1------------1-1-1-1---------------------------------------------|

This block repeats a few times.


At the end of the 1st refrain:

e|---------------------------------------------------------------------------|
B|---------------------------------------------------------------------------|
G|---------------------------------------------------------------------------|
D|--------------------------------------5-5-5---------8-8-8------------------|
A|----------5-5-5---------3-3-3----2/3--3-3-3---5/6---6-6-6------------------|
E|----1/3---3-3-5---1/3\1-1-1-1----------------------------------------------|


e|---------------------------------------------------------------------------|
B|---------------------------------------------------------------------------|
G|---------------------------------------------------------------------------|
D|--------------------------------------7-7-7--------------------------------|
A|----------5-5-5---------3-3-3---------5-5-5---------3-3-3------------------|
E|----1/3---3-3-5---1/3\1-1-1-1-----------------------1-1-1------------------|


end of 2nd refrain:


e|---------------------------------------------------------------------------|
B|---------------------------------------------------------------------------|
G|---------------------------------------------------------------------------|
D|--------------------------------------5-5-5---------8-8-8------------------|
A|----------5-5-5---------3-3-3----2/3--3-3-3---5/6---6-6-6------------------|
E|----1/3---3-3-5---1/3\1-1-1-1----------------------------------------------|


e|---------------------------------------------------------------------------|
B|---------------------------------------------------------------------------|
G|---------------------------------------------------------------------------|
D|-------------------------------------5--6--8-8-8---------------------------|
A|----------5-5-5---------3-3-3----1/2-3--4--6-6-6---------------------------|
E|----1/3---3-3-5---1/3\1-1-1-1----------------------------------------------|


/ = slide-up
\ = slide-down


it think that gets pretty close.
Tap to rate this tab
# A B C D E F G H I J K L M N O P Q R S T U V W X Y Z