Song name
# A B C D E F G H I J K L M N O P Q R S T U V W X Y Z

Spearhead - Sweet Little Lies tab

-------------------------------------------------------------------------------
			     Sweet Little Lies - Michael Franti & Spearhead
-------------------------------------------------------------------------------
Tabbed by: WeBel
Email: darthwessel@hotmail.com

Tuning:EADGBe

e|-------3-------3-------3-------3-------------------------------------------|
B|---3-------3-------3-------3-----------------------------------------------|
G|-----0-------0-------0-------0---------------------------------------------|
D|-------------------------2-------------------------------------------------|
A|-----------------3---------------------------------------------------------|
E|-3-------3-----------------------------------------------------------------|

| /  slide up
| \  slide down
| h  hammer-on
| p  pull-off
| ~  vibrato
| +  harmonic
| x  Mute note
===============================================================================
Tap to rate this tab
 
# A B C D E F G H I J K L M N O P Q R S T U V W X Y Z