Song name
# A B C D E F G H I J K L M N O P Q R S T U V W X Y Z

Special Goodness - Nfa tab

Email: v_oude_lansink@hotmail.com

Great song!

Intro
part 1 (4 times, clean)
e|-------------------------------------------------------------------|
B|-------------------------------------------------------------------|
G|-------------------------------------------------------------------|
D|-------------------------------------------------------------------
A|--9h11--11-11-11--99\----------------------------------------------
E|-------0--0--0--0--------------------------------------------------

Part 2 (4 times, distortion) The 4th time, don't play the 5577 chord!
e|--------------------------------------------------------------------|
B|--------------------------------------------------------------------|
G|-----------------------7-7------------------------------------------|
D|-----------------------7-7------------------------------------------|
A|----5h7---7---7---7----5-5------------------------------------------
E|--------0---0---0---0--5-5------------------------------------------|

part 3 (just this chord, for 2 measures)
e|----0-----------------------------------------|
B|----0-----------------------------------------|
G|----9-----------------------------------------|
D|----x-----------------------------------------|
A|----11-----------------------------------------
E|----0-----------------------------------------|

Verse (2 times)
e|------------------------7------------------------------------------|
B|----------------------7---7----------------------------------------|
G|--13-----6----13----7-7-----7--------------------------------------|
D|--x------7----x-----9----------------------------------------------|
A|--11-----0----11----10---------------------------------------------|
E|--0-----------0-----0----------------------------------------------|
   I know this girl..........

Pre-Chorus (once)
e|--00000000000000000000000000----------------------------------------|
B|--00000000000000000000000000----------------------------------------|
G|--99999999999999999999999999-----------6-6-66-6-6-6676--------------|
D|--99999999999999999999999999-----------6-6-66-6-6-6676--------------|
A|--77777777777777777777777777-----------4-4-44-4-4-4454--0-----------|
E|--00000000000000000000000000----------------------------------------
She loves me..(only bass tones change)  do pa pa da pa pa.....

Chorus1 (1 time)
e|--0---0----0---0-----------------------------------------------------|
B|--0---0----0---0-----------------------------------------------------|
G|--4---11---4---1--------------7-7------------------------------------|
D|--5---12---5---2--------------7-7------------------------------------|
A|--5---12---5---2--------------5-5------------------------------------|
E|--3---10---3---0----end with--5-5------------------------------------|
Well, I'm N.F.A.

Then:
Intro (part 2 and 3)
Verse
Pre-Chorus
(all the same as before)

Then :
Chorus2 (1 time)
e|--0---0----0---0-0---0----0---0----------------------------------------|
B|--0---0----0---0-0---0----0---0----------------------------------------|
G|--4---11---4---1-4---11---4---1-------------7-7------------------------|
D|--5---12---5---2-5---12---5---2-------------7-7------------------------|
A|--5---12---5---2-5---12---5---2-------------5-5------------------------|
E|--3---10---3---0-3---10---3---0---end with--5-5------------------------|
Well, i'm N.F.A.

Intro (part 2)

Something like a solo (4 times, Bass plays tones of intro (part 2))
e|--0-0-0-0-0-0-0--0--0--0-----0--------------------------------|
B|--7-9-0-9-0-9/12-10-10-10/14-14-------------------------------|
G|------9---9---------------------------------------------------|
D|--------------------------------------------------------------|
A|--------------------------------------------------------------|
E|--------------------------------------------------------------|

Bridge
e|-0-------------------------------------------------------------|
B|-0-------------------------------------------------------------|
G|-9-------------------------------------------------------------|
D|-9-------------------------------------------------------------|
A|-7-------------------------------------------------------------|
E|-0-------------------------------------------------------------|
Just plays this chord once and let it ring and feedback

then comes the do pa pa da pa da etc. thing (second half of the pre-chorus)

Then: 
Chorus2
Intro (only part2)

Outro (1 time, clean)
e|---------------------------------------------------------------------
B|---------------------------------------------------------------------
G|---------------------------------------------------------------------
D|---------------------------------------------------------------------
A|--9h11-11-11-11--99-9h11-11-11-11--99--7h9-9-9-9--77-5h7-7--7\-------
E|------7--7--7--7--------7--7--7--7--------6-6-6-6-------5-5-4\-------

Ok, this my attempt, it's certainly not perfect, but is playable.
Have Fun
Tap to rate this tab
# A B C D E F G H I J K L M N O P Q R S T U V W X Y Z