Song name
# A B C D E F G H I J K L M N O P Q R S T U V W X Y Z

Specials - Do The Dog tab

-------------------------------------------------------------------------------
			Do The Dog Solo, The Specials
-------------------------------------------------------------------------------
http://www.youtube.com/watch?v=uWpQ54f8cA4

Tabbed by: Jaron
Email: cardboy9@yahoo.com
Tuning: Standard

The chords for this song are already in the UG archives, but it doesn't include the 
solo. Here's how I like to do it:

0:48

e|--5-7-8-10--10/12\10--13\12-10/12\10-------|
B|-------------------------------------------|
G|-------------------------------------------|
D|-------------------------------------------| x2
A|-------------------------------------------|
E|-------------------------------------------|

e|--------------------------------------------------------------------------|
B|------------------------------------11-13-13-13-11------------------------|
G|-------------------------8b---10-12----------------12-10------------------|
D|-10-10-10-8---------8-10---------------------------------8h10-10----------|
A|------------10-8-10-------------------------------------------------------|
E|--------------------------------------------------------------------------|


e|--------------------------------------------------------------------|
B|--------------------------------------------------------------------|
G|----------------------------------------------12-12-12-12-12-10-10--|
D|-------------------------------------8---------X--X--X--X--X-X--X---|
A|--8-10-10-10-10-8------------------8----10-8--10-10-10-10-10-8--8---|
E|-------------------8-10-10-10-10-8----------------------------------|



************************************
| /   slide up
| \   slide down
| b   Bend
| x   Mute
************************************
Tap to rate this tab
 
# A B C D E F G H I J K L M N O P Q R S T U V W X Y Z