Guitaretab - guitar tabs
Song name
# A B C D E F G H I J K L M N O P Q R S T U V W X Y Z

Specials - Little Bitch tab

			     Little Bitch - The specials

Tabbed by: Whitey                         http://whitey-petity.bebo.com
Email: whity_petity_123@msn.com

this is my first tab so go easy on me lol


Tuning: e a d g b e

INTRO

 "1,2!"                                                                "1,2"
e|-------------------------------------------------------------------------|
B|-----5--5--6--6--5----8--8--9--9--8----10-10-11-11-10----------------5---|
G|-----5--5--5--5--5----8--8--8--8--8----10-10-10-10-10----------------5---|
D|-----5--5--5--5--5----8--8--8--8--8----10-10-10-10-10--6-6-6--8-8-8--5---|
A|-----3--3--3--3--3----6--6--6--6--6----8--8--8--8--8---6-6-6--8-8-8--3---|
E|-------------------------------------------------------4-4-4--6-6-6------|

VERSE 1
[ Tab from: http://www.guitaretab.com/s/specials/44374.html ]
"If you ever hear a noise in the night, your body starts to sweat,
e|---------------------------------------------------------------------------|
B|--------5-------5-------5--------5----10-----10-------10-----10------------|
G|--------5-------5-------5--------5----10-----10-------10-----10------------|
D|--------5-------5-------5--------5----10-----10-------10-----10------------|
A|--------3-------3-------3--------3----8------8--------8------8-------------|
E|---------------------------------------------------------------------------|
     it shakes and shivers in fright, you go and sleep with your mother"
e|--------------------------------------------------------------------------|
B|--5---------5--------5---------5----10-----10-------10----10--------------|
G|--5---------5--------5---------5----10-----10-------10----10--------------|
D|--5---------5--------5---------5----10-----10-------10----10--------------|
A|--3---------3--------3---------3----8------8--------8-----8---------------|
E|--------------------------------------------------------------------------|
 continues like this for each of the verses, i'm sure you'll pick it up, its just c and 
in power chords in a ska strumming pattern.

chorus (instrumental)- the chorus is exactly the same as the intro.
Related for Little Bitch tab