Song name
# A B C D E F G H I J K L M N O P Q R S T U V W X Y Z

Specials - A Message To You Rudi tab

----------------------------------------------------------------------------
	         A MESSAGE TO YOU RUDI - The Specials
----------------------------------------------------------------------------
Tabbed by:garlic bread?
Email:bords_knickords@hotmail.com

Tuning:EADGBe

the whole of the song is just three chords. C, F & G, but the timing is a bit
tricky 'cause you have to strum off beat....

e|---------------------1--1/---3---3--3------------------------------------|
B|--1---1----1-1---1---1--1/---3---3--3------------------------------------|
G|--0---0----0-0---0---2--2/---4---4--4------------------------------------|
D|--2---2----2-2---2---3--3/---5---5--5------------------------------------|
A|--3---3----3-3---3---3--3/---5---5--5------------------------------------|
E|-------------------------------------------------------------------------|

e|---------------------1--1/---3---3--3------------------------------------|
B|--1---1----1-1---1---1--1/---3---3--3------------------------------------|
G|--0---0----0-0---0---2--2/---4---4--4------------------------------------|
D|--2---2----2-2---2---3--3/---5---5--5------------------------------------|
A|--3---3----3-3---3---3--3/---5---5--5------------------------------------|
E|-------------------------------------------------------------------------|

e|---------------------1--1/---3---3--3------------------------------------|
B|--1---1----1-1---1---1--1/---3---3--3------------------------------------|
G|--0---0----0-0---0---2--2/---4---4--4------------------------------------|
D|--2---2----2-2---2---3--3/---5---5--5------------------------------------|
A|--3---3----3-3---3---3--3/---5---5--5------------------------------------|
E|-------------------------------------------------------------------------|

e|---------------------1--1/---3---3--3------------------------------------|
B|--1---1----1-1---1---1--1/---3---3--3------------------------------------|
G|--0---0----0-0---0---2--2/---4---4--4------------------------------------|
D|--2---2----2-2---2---3--3/---5---5--5------------------------------------|
A|--3---3----3-3---3---3--3/---5---5--5------------------------------------|
E|-------------------------------------------------------------------------|



| /  slide up
| \  slide down
| h  hammer-on
| p  pull-off
| ~  vibrato
| +  harmonic
| x  Mute note
============================================================================
This is the whole song, its simple & easy, but this song is pure class.
The Specials at thier best. Have Fun!
Peace Out :)
Tap to rate this tab
# A B C D E F G H I J K L M N O P Q R S T U V W X Y Z