Song name
# A B C D E F G H I J K L M N O P Q R S T U V W X Y Z

Specials - Too Hot tab

The Specials:
Too Hot
tabbed by mike j.

this is what I got. hope you like it.

e 2h3-2h3-2------------3h5-/7-5-5-----3h5-/7-5-5--/12-9h10-10-9-7---|
B -----------5-5-3--3h5----------5--3h5---------5----------------9--|
G ------------------------------------------------------------------|
D ------------------------------------------------------------------|
A ------------------------------------------------------------------|
E ------------------------------------------------------------------|

e -/12-9h10-10-9-7--/10-7h8-8-7-5----15\-15\-----------------15\-15\-|
B ----------------9--------------5-----------12x12x14x14x12x---------|
G -------------------------------------------------------------------|
D -------------------------------------------------------------------|
A -------------------------------------------------------------------|
E -------------------------------------------------------------------|

there may be a few kinks so play around with it. otherwise, enjoy.
                                                           -mike
                                                              lynbrook, ny
Tap to rate this tab
# A B C D E F G H I J K L M N O P Q R S T U V W X Y Z