Song name
# A B C D E F G H I J K L M N O P Q R S T U V W X Y Z

Specials - Friday Nite Saturday Morning tab

Date: 	    Thu, 13 Feb 2003 9:29:31
From:	    02fishnutter@fuse.net
Artist:     The Specials
Song:  	    Friday Night, Saturday Morning
Album:	    The Singles Collection
Tabbed by:  C.L.M. (02fishnutter@fuse.net)
Paged by:   ace p3 (ace_p3@hotmail.com)

This is the way I play it:



Verse:

E-8-8-8-8-|-7-7-7-7-|-8-8-8-8-|-7-7-7-7-|
B-8-8-8-8-|-8-8-8-8-|-8-8-8-8-|-8-8-8-8-|
G-9-9-9-9-|-9-9-9-9-|-9-9-9-9-|-9-9-9-9-|
D---------|---------|---------|---------|
A---------|---------|---------|---------|
E---------|---------|---------|---------|


Then (still verse)

E-8--8--8--8--|-8--8--8--8--|-8--8--8--8--|-10-10-10-10-|
B-10-10-10-10-|-8--8--8--8--|-10-10-10-10-|-10-10-10-10-|
G-10-10-10-10-|-10-10-10-10-|-10-10-10-10-|-11-11-11-11-|
D-------------|-------------|-------------|-------------|
A-------------|-------------|-------------|-------------|
E-------------|-------------|-------------|-------------|


Chorus:

E-7-7-7-7-|-7-7-7-7-|-7-7-7-7-|-7--6--7--|
B-9-9-9-9-|-9-9-9-9-|-9-9-9-9-|-5--5--5--|
G-9-9-9-9-|-8-8-8-8-|-7-7-7-7-|-6--6--6--|
D---------|---------|---------|----------|
A---------|---------|---------|----------|
E---------|---------|---------|----------|
Tap to rate this tab
 
# A B C D E F G H I J K L M N O P Q R S T U V W X Y Z