Song name
# A B C D E F G H I J K L M N O P Q R S T U V W X Y Z

Specimen - The Beauty Of Poisin tab

Specimen
The Beauty Of Poisin
Batastrophe / Wet Warm Clingfilm Red Velvet Crush
Transcribed by: Tom Quinn

Band website:
http://www.specimenbatcave.net

This is entirely tabbed by ear, and is certainly not 100% correct.  It sounds good,
though.  Listen to the song to get an idea of the rhythm of each part.  I added some notes
here and there to fill out the guitar track, but you can play it however you want.  Feel 
free to e-mail me (M0L3CH@yahoo.com) with any corrections.
Enjoy ;)

Tuning: Standard (E A D G B e)

INTRO/MAIN RIFF A
e|----------------------------------------------------------------------||
B|----------------------------------------------------------------------||
G|-------------4--6--8----4--4-4--6--8----3--4-4--4----3--4-4--(x)(x)---||
D|-------------x--x--x----x--x-x--x--x----x--x-x--x----x--x-x--(x)(x)---||
A|-------------2--4--6----2--2-2--4--6----1--2-2--2----1--2-2--(x)(x)---||
E|--(12)\(0)0-----------------------------------------------------------||


INTRO/MAIN RIFF B
e|---------------------------------------------------------------------||
B|---------------------------------------------------------------------||
G|--------4--6--8----4--4-4--6--8----3--4-4--4----3--4-4-5-5-6/7/8-9---||
D|--------x--x--x----x--x-x--x--x----x--x-x--x----x--x-x-x-x-x-x-x-x---||
A|--2-----2--4--6----2--2-2--4--6----1--2-2--2----1--2-2-3-3-4/5/6-7---||
E|--0--0---------------------------------------------------------------||


VERSE                    Repeat
e|----------------------------||
B|---------------------------o||
G|--8--x--8--x--8--x--8--x----||
D|--x--x--x--x--x--x--x--x----||
A|--6--x--6--x--6--x--6--x---o||
E|----------------------------||
    m  m  m  m  m  m  m  m

PRE-CHORUS
e|-------------------------------------------------------------------||
B|-------------------------------------------------------------------||
G|-------------4--6--8----4--4-4--6--8----3--4-4--4----3--4-4--(x)---||
D|-------------x--x--x----x--x-x--x--x----x--x-x--x----x--x-x--(x)---||
A|-------------2--4--6----2--2-2--4--6----1--2-2--2----1--2-2--(x)---||
E|--(12)\(0)-0-------------------------------------------------------||


e|------------------------------------------------------------------------------||
B|------------------------------------------------------------------------------||
G|-------------4--6--8----4--4-4--6--8----4--4-----------4----4--2--------------||
D|-------------x--x--x----x--x-x--x--x----x--x-----------x----x--x--6--4--------||
A|-------------2--4--6----2--2-2--4--6----2--2-----------2----2--0--x--x--------||
E|--(12)\(0)-0----------------------------------0--2--4-------------4--2--(0)---||


CHORUS A
e|------------------------------------------------------------||
B|--------------5/(15)----------------------------------------||
G|--4----4--3----------------7--7--7--7--6--4-----------------||
D|--x----x--x----------------x--x--x--x--x--x--2--------------||
A|--2----2--1----------------5--5--5--5--4--2--x----0--1--2---||
E|-----------(0)------(0)----------------------0--------------||


CHORUS B
e|--------------------------------------||
B|--------------------------------------||
G|--5----5--5--4--2--------------6--8---||
D|--x----x--x--x--x--2----(2)----x--x---||
A|--3----3--3--2--0--x----(2)----4--6---||
E|-------------------0----(0)-----------||


POST-CHORUS                            Repeat
e|------------------------------------------||
B|-----------------------------------------o||
G|--4-4----------------4-4------------------||
D|--x-x----------------x-x------------------||
A|--2-2--(x)(x)---(x)--2-2--(x)(x)---(x)---o||
E|-------(x)(x)---(x)-------(x)(x)---(x)----||


BRIDGE
e|-------------------------------------------------||
B|-------------------------------------------------||
G|--5--4----5--4----5--4----5--4-4-4-4-4-4-4-4-4---||
D|--x--x----x--x----x--x----x--x-x-x-x-x-x-x-x-x---||
A|--3--2----3--2----3--2----3--2-2-2-2-2-2-2-2-2---||
E|-------------------------------------------------||


OUTRO
e|----------------||
B|----------------||
G|----------------||
D|--2----2----2---||
A|--2----2----2---||
E|--0----0----0---||


The lyrics are all online, and mostly correct.  Have fun.


Key:

( ) = Ghost note
 x  = Dead note
 m  = Palm mute
 /  = Slide up
Tap to rate this tab
 
# A B C D E F G H I J K L M N O P Q R S T U V W X Y Z