Song name
# A B C D E F G H I J K L M N O P Q R S T U V W X Y Z

Spector - Twenty Nothing tab

-------------------------------------------------------------------------------
                             Twenty Nothing - Spector
-------------------------------------------------------------------------------
Tabbed by: Freddie Macauley
E-mail: fmacauley2@gmail.com

Tuning: Standard

Lead Guitar:

Intro:

e|--------------------------------------------------------------|
B|-------2--------------2-----------2--------------2------------|
G|---------4-2-4--4br-2---4-2---------4-2-4--4br-2---4-2-4--4br-|
D|-2~--2----------------------4-2-2-----------------------------|
A|--------------------------------------------------------------|
E|--------------------------------------------------------------|

e|-------------------|
B|---2-------------2-|
G|-2---4-2-4--4br--2-|
D|-----------------2-|
A|-------------------|
E|-------------------|

Verse:

Plays chords until after the line 'real talk when did it become a competition'

e|-----------------------------------|
B|-----------------------------------|
G|-----------------------------------|
D|-9-x8--14-x8-----------------------|
A|-------------10-10-9-9-10-10-9-x10-|
E|-----------------------------------|
To clarify the A string is just the final 9 played 10 times

Then back to chords until the after the line 'and how this cars got two third wheels'

e|-----------------------------------|
B|-----------------------------------|
G|-----------------------------------|
D|-9-x16--------9-x16--11-x8--14-x8--|
A|-------10-x16----------------------|
E|-----------------------------------|

During the chorus it's just chords

Then this:

e|-------------------------------------------------|
B|-------2--------------2-----------2--------------|
G|---------4-2-4--4br-2---4-2---------4-2-4--4br-2-|
D|-2~--2----------------------4-2-2----------------|
A|-------------------------------------------------|
E|-------------------------------------------------|

In verse 2 only this is played:

e|-----------------------------------|
B|-----------------------------------|
G|-----------------------------------|
D|-9-x16--------9-x16--11-x8--14-x8--|
A|-------10-x16----------------------|
E|-----------------------------------|

Again the chorus with just chords

Bridge:

Nothing is played then as the 'one you started coming over...' is repeated:

Here play 14 on the G string, and then slide up the neck.

Chorus is played again

Outro:

Play 14 on the G string during the first 4 lines
Then 15 on the B string during the repeat of the lines and then slide up the neck on the 
last note.

I'll hopefully get round to getting the chords/rhythm guitar down soon :)
Tap to rate this tab
# A B C D E F G H I J K L M N O P Q R S T U V W X Y Z