Guitaretab - guitar tabs
Song name
# A B C D E F G H I J K L M N O P Q R S T U V W X Y Z

Speedealer - Screamer tab

-------------------------------------------------------------------------------
			     SONG NAME - Band Name
-------------------------------------------------------------------------------
Tabbed by:shut_up_n00b
Email:epiphone_squier@hotmail.com

This is a song by Speeddealer called Screamer.  I've seen it be confused with Black Flag 
for some reason.  This song can be played in Drop D, too.

Tuning:Standard

INTRO
e|----------------------------------|----------------------------------||
B|----------------------------------|----------------------------------||
G|----------------------------------|----------------------------------||
D|----------------------------------|----------------------------------||
A|----------------------------------|----------------------------------||
E|--0-0-0-3-3-3-4-4-4-5-5-5-7b-7b---|--0-0-0-3-3-3-4-4-4-5-5-5-7b-7b---||

VERSE
If you knew I knew it was the first time
e|--------------------------------------|
B|--------------------------------------|
G|--------------------------------------|
D|--------------------------------------|
A|--2-2-2-5-5-5-6-6-6-7-7-7-9/10-9/10---|
E|--0-0-0-3-3-3-4-4-4-5-5-5-7/8--7/8----|

Maybe then you can have a piece of mind
e|--------------------------------------|
B|--------------------------------------|
G|--------------------------------------|
D|--------------------------------------|
A|--2-2-2-5-5-5-6-6-6-7-7-7-9/10-9/10---|
E|--0-0-0-3-3-3-4-4-4-5-5-5-7/8--7/8----|

If it's shit, shit I know how to feel
e|--------------------------------------|
B|--------------------------------------|
G|--------------------------------------|
D|--------------------------------------|
A|--2-2-2-5-5-5-6-6-6-7-7-7-9/10-9/10---|
E|--0-0-0-3-3-3-4-4-4-5-5-5-7/8--7/8----|

If it's shit, shit don't let it make feel (like a)
e|--------------------------------------|
B|--------------------------------------|
G|--------------------------------------|
D|--------------------------------------|
A|--2-2-2-5-5-5-6-6-6-7-7-7-9/10-9/10---|
E|--0-0-0-3-3-3-4-4-4-5-5-5-7/8--7/8----|
[ Tab from: http://www.guitaretab.com/s/speedealer/130467.html ]
CHORUS
                              Screamer!
e||--------------------------------------||x4
B||-o----------------------------------o-||
G||---7-7-7---------7-7-7-------7--------||
D||---7-7-7--7-7-7--7-7-7-7-7-7-7--7-----||
A||-o-5-5-5--7-7-7--5-5-5-7-7-7-5--7---o-||
E||----------5-5-5--------5-5-5----5-----||
                                *NOTE: Don't play the last A5 the 4th time
                                       this is played*
e|-----------------|
B|--5-7--5-7b--5v--|
G|--5-7--5-7b--5v--|
D|-----------------|
A|-----------------|
E|-----------------|

VERSE
*I can't figure out the lyrics for this part, so just play the main riff 4 times.*
e|--------------------------------------|x4
B|--------------------------------------|
G|--------------------------------------|
D|--------------------------------------|
A|--2-2-2-5-5-5-6-6-6-7-7-7-9/10-9/10---|
E|--0-0-0-3-3-3-4-4-4-5-5-5-7/8--7/8----|

CHORUS
                              Screamer!
e||--------------------------------------||x4
B||-o----------------------------------o-||
G||---7-7-7---------7-7-7-------7--------||
D||---7-7-7--7-7-7--7-7-7-7-7-7-7--7-----||
A||-o-5-5-5--7-7-7--5-5-5-7-7-7-5--7---o-||
E||----------5-5-5--------5-5-5----5-----||
                                *NOTE: Don't play the last A5 the 4th time
                                       this is played*
*Not sure about this breakdown*
e|-----------------||
B|-----------------||
G|-----------------||
D|-7-7-9-10-12-14--||
A|-7-7-9-10-12-14--||
E|-5-5-7-8--10-12--||

BREAKDOWN
e|------------------------------|x6
B|------------------------------|
G|------------------------------|
D|------------------------------|
A|------------------------------|
E|-0h3p0-4-4-0h3p0h3p0-3h4p3p0--|

OUTRO
e|--------------------------------------|x4
B|--------------------------------------|
G|--------------------------------------|
D|--------------------------------------|
A|--2-2-2-5-5-5-6-6-6-7-7-7-9/10-9/10---|
E|--0-0-0-3-3-3-4-4-4-5-5-5-7/8--7/8----|

e|-----||
B|-----||
G|-----||
D|-2-2-||
A|-2-2-||
E|-0-0-||

That's it. Enjoy!

===============================================================================
| b  bend
| /  slide up
| \  slide down
| h  hammer-on
| p  pull-off
| ~  vibrato
| +  harmonic
| x  Mute note
===============================================================================
Related for Screamer tab