Song name
# A B C D E F G H I J K L M N O P Q R S T U V W X Y Z

Speedealer - Never New tab

never new
Live At Emos In Austin Feb 14 2009



speedealer


TRANSCRIBED BY RUDY GUZMAN


guzman_84@h




                                               x4
eb:---------------------------------------------|
Bb:-4--6-6p4-----4--6-6p4----4--6-6p4-----------|
Gb:-4--6-6p4-----4--6-6p4----4--6-6p4-----------|
Db:-----------6-----------6------------6---4--6-|
Ab:----------------------------------------2--4-|
Eb:---------------------------------------------|

   this aint no rock n roll show, we're here to rock the scene, no matter where
   you are baby, we'll come to thrash the scene
eb:-------------------------------------------------------------------------|
Bb:-------------------------------------------------------------------------|
Gb:-------------------------------------------------------------------------|
Db:-------------------------------------------------------------------------|
Ab:-4-(4)/6666666666--4-(4)/6666666666--4-(4)/6666666666--4-(4)/6666666666--|
Eb:-2-(2)/4444444444--2-(2)/4444444444--2-(2)/4444444444--2-(2)/4444444444--|

   watch out! watch out watch out
eb:----------------------------------|
Bb:-6b--4-4--6b--4-4--6b--4-4--------|
Gb:-6b--4-4--6b--4-4--6b--4-4----4-6-|
Db:----------------------------6-----|
Ab:----------------------------------|
Eb:----------------------------------|
 
    no matter definitely you got the truth
eb:------------------------------------|
Bb:------------------------------------|
Gb:------------------------------------|
Db:------------------------------------|
Ab:-4-(4)/6666666666--4-(4)/6666666666-|
Eb:-2-(2)/4444444444--2-(2)/4444444444-|

   this aint no rock n roll, i got the truth
eb:---------------------------------|
Bb:---------------------------------|
Gb:---------------------------------|
Db:-8888888888-7-6-6666666-6-7-8----|
Ab:-6666666666-5-4-4444444-4-5-6----|
Eb:---------------------------------|

eb:---------------------------------------------|
Bb:-4--6-6p4-----4--6-6p4----4--6-6p4-----------|
Gb:-4--6-6p4-----4--6-6p4----4--6-6p4-----------|
Db:-----------6-----------6------------6---4--6-|
Ab:----------------------------------------2--4-|
Eb:---------------------------------------------|

   dazzling eyes like a what a kind of ray no matter where you are 
    we`ll think you come to be fucking around
eb:-------------------------------------------------------------------------|
Bb:-------------------------------------------------------------------------|
Gb:-------------------------------------------------------------------------|
Db:-------------------------------------------------------------------------|
Ab:-4-(4)/6666666666--4-(4)/6666666666--4-(4)/6666666666--4-(4)/6666666666--|
Eb:-2-(2)/4444444444--2-(2)/4444444444--2-(2)/4444444444--2-(2)/4444444444--|

     i know i know watch out watch out 
eb:----------------------------------|
Bb:-6b--4-4--6b--4-4--6b--4-4--------|
Gb:-6b--4-4--6b--4-4--6b--4-4----4-6-|
Db:----------------------------6-----|
Ab:----------------------------------|
Eb:----------------------------------|

          definitely you know i got the truth   
eb:------------------------------------|
Bb:------------------------------------|
Gb:------------------------------------|
Db:------------------------------------|
Ab:-4-(4)/6666666666--4-(4)/6666666666-|
Eb:-2-(2)/4444444444--2-(2)/4444444444-|

    this aint rock n roll you got the truth, no matter where you are
eb:--------------------------------------------------------|
Bb:--------------------------------------------------------|
Gb:--------------------------------------------------------|
Db:-8888888888-7-6-6666666-6-7-8-8888888888-7-6-6666666666-|
Ab:-6666666666-5-4-4444444-4-5-6-6666666666-5-4-4444444444-|
Eb:--------------------------------------------------------|

eb:----------------------------------------------------------|
Bb:----------------------------------------------------------|
Gb:----------------------------------------------------------|
Db:----------------------------------------------------------|
Ab:-0000-3-00-5-00-66--0000-3-00-5-00-66--0000-3-00-5-00-66--|
Eb:----------------------------------------------------------|


eb:--------------------------------------------|
Bb:------1111-3333-44444-------1111-3333-44444-|
Gb:-2222------------------2222-----------------|
Db:--------------------------------------------|
Ab:--------------------------------------------|
Eb:--------------------------------------------|

eb:-----------------------------------------------------|
Bb:-------------13-13-13-13--15-15-15-15-16-16-16-16-16-|
Gb:-14-14-14-14-----------------------------------------|
Db:-----------------------------------------------------|
Ab:-----------------------------------------------------|
Eb:-----------------------------------------------------|

eb:-----------------------------------------------------|
Bb:-------------13-13-13-13--15-15-15-15-16-16-16-16-16-|
Gb:-14-14-14-14-----------------------------------------|
Db:-----------------------------------------------------|
Ab:-----------------------------------------------------|
Eb:-----------------------------------------------------|

    this aint rock n roll, you got the truth, no matter where you are
eb:---------------------------------------------------------|
Bb:---------------------------------------------------------|
Gb:---------------------------------------------------66666-|
Db:-8888888888-7-6-6666666-6-7-8-8888888888-7-6-66666-66666-|
Ab:-6666666666-5-4-4444444-4-5-6-6666666666-5-4-44444-44444-|
Eb:---------------------------------------------------------|

                                               x4
eb:---------------------------------------------|
Bb:-4--6-6p4-----4--6-6p4----4--6-6p4-----------|
Gb:-4--6-6p4-----4--6-6p4----4--6-6p4-----------|
Db:-----------6-----------6------------6---4--6-|
Ab:----------------------------------------2--4-|
Eb:---------------------------------------------|

   this aint rock n roll, no matter where you are, no matter whats about
   because we come to talk about
eb:-------------------------------------------------------------------------|
Bb:-------------------------------------------------------------------------|
Gb:-------------------------------------------------------------------------|
Db:-------------------------------------------------------------------------|
Ab:-4-(4)/6666666666--4-(4)/6666666666--4-(4)/6666666666--4-(4)/6666666666--|
Eb:-2-(2)/4444444444--2-(2)/4444444444--2-(2)/4444444444--2-(2)/4444444444--|
 
   watch out watch out watch out watch out
eb:----------------------------------|
Bb:-6b--4-4--6b--4-4--6b--4-4--------|
Gb:-6b--4-4--6b--4-4--6b--4-4----4-6-|
Db:----------------------------6-----|
Ab:----------------------------------|
Eb:----------------------------------|
            definitely you know i got the truth
eb:------------------------------------|
Bb:------------------------------------|
Gb:------------------------------------|
Db:------------------------------------|
Ab:-4-(4)/6666666666--4-(4)/6666666666-|
Eb:-2-(2)/4444444444--2-(2)/4444444444-|

   this aint no rock n roll, you got the truth, this aint no rock n roll
eb:--------------------------------------------------------|
Bb:--------------------------------------------------------|
Gb:--------------------------------------------------------|
Db:-8888888888-7-6-6666666-6-7-8-8888888888-7-6-6666666666-|
Ab:-6666666666-5-4-4444444-4-5-6-6666666666-5-4-4444444444-|
Eb:--------------------------------------------------------|

                                               
eb:---------------------------------------------|
Bb:-4--6-6p4-----4--6-6p4----4--6-6p4-----------|
Gb:-4--6-6p4-----4--6-6p4----4--6-6p4-----------|
Db:-----------6-----------6------------6---4--6-|
Ab:----------------------------------------2--4-|
Eb:---------------------------------------------|

eb:-----------------------------------------------|
Bb:-4--6-6p4-----4--6-6p4----4--6-6p4-------------|
Gb:-4--6-6p4-----4--6-6p4----4--6-6p4-------------|
Db:-----------6-----------6------------6---4--6---|
Ab:----------------------------------------2--4-6-|
Eb:---------------------------------------------4-|

hillo son mex

04/03/09
Tap to rate this tab
 
# A B C D E F G H I J K L M N O P Q R S T U V W X Y Z