Guitaretab - guitar tabs
Song name
# A B C D E F G H I J K L M N O P Q R S T U V W X Y Z

Speedway - Always Here tab

I used the chords that Jill Jackson gave us on the Speedway board to figure out the 
plucking pattern to this amazing song!

 Chord C
E|----------------||
B|0---------------||
G|--0-------------||
D|----0---0-------||
A|----------0-----||
E|------0---------|| x2

[ Tab from: http://www.guitaretab.com/s/speedway/65888.html ]
Chord F
E|----------------||
B|----------------||
G|0---------------||
D|--0-----0-------||
A|----0-----0-----||
E|------0---------|| x1

Chord G
E|0---------------||
B|--0-------------||
G|----0-----------||
D|------0---------||
A|------0---------||
E|------0---------||

Repeat the C and F chord and sometimes going to G
(thats wot Jill said lol)

Then the middle 8 goes

C/F/G/C/F/G/C/E/Am/D7/Dm 7thG

Ive tried to figure that part out but to me it just sounds like C and F
repeated over and over again.

Related for Always Here tab