Song name
# A B C D E F G H I J K L M N O P Q R S T U V W X Y Z

Speedy Ortiz - No Below tab

The other tab has it pretty close, but there are a few mistakes, particularly in the verse chords.
Intro + Verse Chords (Listen to the Song for timing)
       Dbmin        E          F#min    Dbmin     A    Dbmin     F#       A
e|----4-------0-------2------4------5-----4-----2-----5-------------------------|
B|----5-------0-------2------5------5-----5-----2-----5-------------------------|
G|----6-------1-------2------6------6-----6-----3-----6-------------------------|
D|----6-------2-------4------6------7-----6-----4-----7-------------------------|
A|----4-------2-------4------4------7-----4-----4-----7-------------------------|
E|------------0-------2-------------5------------2-----5------------------------|

The lead guitar part for the intro/verse is correct

Pre-Chorus
          F#            E           A           D
e|----2-------0-------5-----10----------------------------------------------|
B|----2-------0-------5-----10----------------------------------------------|
G|----3-------1-------6-----11----------------------------------------------|
D|----4-------2-------7-----12----------------------------------------------|
A|----4-------2-------7-----12----------------------------------------------|
E|----2-------0-------5-----10----------------------------------------------|

Chorus Riff (Play 2x)
e|----------------------------------------------------------------------------------|
B|----------------------------------------------------------------------------------|
G|----------------------------------------------------------------------------------|
D|----------------4----6------6h7--6-4-------------7-6-4----------------------------|
A|--------4---7-------------------------7-4-7-------------7-4-7---------------------|
E|---------------------------------------------4------------------4----4/6--6/9-----|
Tap to rate this tab
# A B C D E F G H I J K L M N O P Q R S T U V W X Y Z