Song name
# A B C D E F G H I J K L M N O P Q R S T U V W X Y Z

Spell Forest - Pride In Lucifers Worshipping Lucifer Rex tab

                          -----------------------------------------------------------
			  Pride in Lucifer's worshipping (Lucifer Rex) - Spell Forest
                          ----------------------------------------------------------- 


Tabbed by: Nocturnal Frost
Email: maguscaligula@hotmail.it

Tuning: D G C F A d

d|----------------------------------------------------------------------------|
A|-----------------------------------8-7-5-7----------------------------------|
F|-9----7------------------5-7-5-4-5---------7------------------9----9-7-9----|
C|-----------9--------9----------------------------------7-9-10---------------|
G|-------------7-9-10-----------------------------7-9-10----------------------|
D|----------------------------------------------------------------------------|

d|----------------7--8-7----7------7\------------------------------------------|
A|-7-8-7----10-----------10---8-10------------------7--------------------------|
F|---------------------------------------------9-------9-7---9-7---------------|
C|------------------------------------9----7-9--------------------9-10-9-7-9-7-|
G|-----------------------------------------------------------------------------|
D|-----------------------------------------------------------------------------|

d|-------------------------------------------------------|
A|-------------------------7-8-7---7---------------------|
F|--------------------9----------9---9-7-7-8-7(AH)-------|
C|-----------9----7-9------------------------------9(AH)-|
G|-10-7-9-10---------------------------------------------|
D|-------------------------------------------------------|

|=========================|
| (AH) Artificial Armonic |
| /    slide up           |
| \    slide down         |
| h    hammer-on          |
| p    pull-off           |
| ~    vibrato            |
| +    harmonic           |
| x    Mute note          |
|=========================|

That's it. Some parts are pretty difficult, so pay attention to the picking.
HAIL METAL
HAIL SATAN

www.spellforest.com
Tap to rate this tab
# A B C D E F G H I J K L M N O P Q R S T U V W X Y Z