Song name
# A B C D E F G H I J K L M N O P Q R S T U V W X Y Z

Spencer Bell - Return To Earth tab

Artist:	Spencer Bell
Song:	Return To Earth
Album:	Live and Wasted



e|---------------------------------------------------------------------------|
b|--8-----8---8--------8---8----6--4-----4---4--------4---4----6-------------|		(2x)
G|---------------------------------------------------------------------------|
D|---------------------------------------------------------------------------|
A|--6---6---6---6----6---6---6--5--3---3---3---3----3---3---3--5-------------|
E|---------------------------------------------------------------------------|


e|---------------------------------4--------4-------------4------------------|
b|--8----x--6----x--4----x-3----x--------------------------------------------|
G|--------------------------------------5-------------5----------------------|		(2x)
D|---------------------------------------------------------------------------|
A|--6--x----5--x----3--x---1--x----------------------------------------------|
E|---------------------------------4--4---4---4--4--4---4---4----------------|


e|---------------------------------------------------------------------------|
b|--8-----8---8--------8---8----6--4-----4---4--------4---4-----6------------|		
G|---------------------------------------------------------------------------|
D|---------------------------------------------------------------------------|
A|--6---6---6---6----6---6---6--5--3---3---3---3----3---3---3---5------------|
E|---------------------------------------------------------------------------|


e|---------------------------------------------------------------------------|
b|--8-----8---8--------9---9----6--4-----4---4--------6---6--6--4------------|
G|---------------------------------------------------------------------------|
D|---------------------------------------------------------------------------|
A|--6---6---6---6----6---6---6--5--3---3---3---3----3---3----3--3------------|
E|---------------------------------------------------------------------------|


e|---------------------------------4--------4-------------4------------------|
b|--8----x--6----x--4----x-3----x--------------------------------------------|
G|--------------------------------------5-------------5----------------------|		
D|---------------------------------------------------------------------------|
A|--6--x----5--x----3--x---1--x----------------------------------------------|
E|---------------------------------4--4---4---4--4--4---4---4----------------|
-

e|--------------------------4-------4-----------4-----------4-----------4----|
b|--8---x-6---x-4---x-3---x--------------------------------------------------|
G|------------------------------5-----------5-----------5-----------5--------|
D|---------------------------------------------------------------------------|
A|--6-x---5-x---3-x---1-x----------------------------------------------------|
E|--------------------------4-4---4---4-4-4---4---4-4-4---4---4-4-4---4---4--|
Tap to rate this tab
 
# A B C D E F G H I J K L M N O P Q R S T U V W X Y Z