Song name
# A B C D E F G H I J K L M N O P Q R S T U V W X Y Z

Spermbirds - Nothing Is Easy tab

-------------------------------------------------------------------------------
                            NOTHING IS EASY - Spermbirds
-------------------------------------------------------------------------------

BY DJOLE   fatdjole@ptt.yu

   Intro
E|---------------------------------------------------------------|
B|---------------------------------------------------------------|
C|--------------------------9-9-9-9-10-9-7--10-10-10-10-9-10-11--|
D|--7-9--7-10---7-9--7-10----------------------------------------|
A|--5-7--5-8----5-7--5-8-----------------------------------------|
E|---------------------------------------------------------------|

   Verse
E|---------------------------------------------------------------|
B|---------------------------------------------------------------|
C|---------------------------------------------------------------|
D|--7-9--7-10---7-9--7-10---7-9--7-10---7-9--7-10-10---10-10-10--|
A|--5-7--5-8----5-7--5-8----5-7--5-8----5-7--5-8--8----8--8--8---|
E|---------------------------------------------------------------|

E|-----------------------      -----------------------------------|
B|-----------------------      -----------------------------------|
C|-----------------------     ------------------------------------|
D|--10--12--12-12-12-12-- |x3  --10-10--10--9-9-------------------|
A|--8---10--10-10-10-10--/     --8--8---8---7-7-------------------|
E|-----------------------      -----------------------------------|

   Chorus
E|------------------------------------------------------------------|
B|------------------------------------------------------------------|
C|------------------------------------------------------------------|
D|--7-7-7-7-7-7--10--9--7--10-10-10-10--12-12-12-12-----------------|x4
A|--7-7-7-7-7-7--8---7--5--10-10-10-10--10-10-10-10-----------------|
E|--5-5-5-5-5-5------------8--8--8--8-------------------------------|

   Bridge
E|------------------------------------------------------------------|
B|------------------------------------------------------------------|
C|--9-9-9-9-10-9-7--10-10-10-10-9-10-11-----------------------------|
D|------------------------------------------------------------------|x2
A|------------------------------------------------------------------|
E|------------------------------------------------------------------|

   Verse  ->

   Chorus ->

   Bridge
E|---------------------------------------------------------------|
B|---------------------------------------------------------------|
C|--9-9-9-9-10-9-7--10-10-10-10-9-10-11--------------------------|
D|----------------------------------------10--9--7--9------------|
A|----------------------------------------8---7--5--7------------|
E|---------------------------------------------------------------|

   Chorus ->

E|---------------------------------------------------------------||
B|---------------------------------------------------------------||
C|---------------------------------------------------------------||
D|--9------------------------------------------------------------||
A|--7------------------------------------------------------------||
E|---------------------------------------------------------------||

-------------------------------------------------------------------------------
Tap to rate this tab
# A B C D E F G H I J K L M N O P Q R S T U V W X Y Z