Song name
# A B C D E F G H I J K L M N O P Q R S T U V W X Y Z

Spermbirds - Something To Prove tab

-------------------------------------------------------------------------------
                         SOMETHING TO PROVE - Spermbirds
-------------------------------------------------------------------------------

BY DJOLE   fatdjole@ptt.yu

   Intro
E|-------------------------------------------------------------------|
B|----9----8----6---8---8--------------------------------------------|
C|--6----5----3---5---5---5------------------------------------------|
D|-------------------------------------------------------------------|x2
A|-------------------------------------------------------------------|
E|-------------------------------------------------------------------|

E|----------------------------------------------------------------|
B|----------------------------------------------------------------|
C|----------------------------------------------------------------|
D|--6--8--6--5-5--6--5----6--8--6--5-5--6--5----------------------|
A|--4--8--4--5-5--4--5----4--8--4--5-5--4--5----------------------|
E|-----6-----3-3-----3-------6-----3-3-----3----------------------|

   Verse
E|-------------------------------------------------------------------|
B|-------------------------------------------------------------------|
C|-------------------------------------------------------------------|
D|--6-6-6-6-6-6--8-8-8-8-8--6--5-5--6--5-5---------------------------|x8
A|--4-4-4-4-4-4--8-8-8-8-8--4--5-5--4--5-5---------------------------|
E|---------------6-6-6-6-6-----3-3-----3-3---------------------------|

   Chorus
E|----------------------------------------------------------------|
B|----------------------------------------------------------------|
C|----------------------------------------------------------------|
D|--5-5--2--3-2-2-2-2--3-3-3-3---5-5--2--3-2-2-2-2--3-3-3-3-------|
A|--5-5--2--3-2-2-2-2--3-3-3-3---5-5--2--3-2-2-2-2--3-3-3-3-------|
E|--3-3--0--1-0-0-0-0--1-1-1-1---3-3--0--1-0-0-0-0--1-1-1-1-------|

   Verse  ->

   Chorus ->

   Bridge
E|-------------------------------------------------------------------|
B|-------------------------------------------------------------------|
C|-------------------------------------------------------------------|
D|--7-7-7-7-7-7--9-9-9-9-9-9--5-9-7----------------------------------|x4
A|--7-7-7-7-7-7--9-9-9-9-9-9--5-9-7----------------------------------|
E|--5-5-5-5-5-5--7-7-7-7-7-7--3-7-5----------------------------------|

   Chorus
E|-------------------------------------------------------------------|
B|-------------------------------------------------------------------|
C|-------------------------------------------------------------------|
D|--5-5--2--3-2-2-2-2--3-3-3-3---5-5--2--3-2-2-2-2--3-3-3-3----------|x2
A|--5-5--2--3-2-2-2-2--3-3-3-3---5-5--2--3-2-2-2-2--3-3-3-3----------|
E|--3-3--0--1-0-0-0-0--1-1-1-1---3-3--0--1-0-0-0-0--1-1-1-1----------|

   Outro
E|------------------------||
B|------------------------||
C|------------------------||
D|--5-5-5-5-5-5-5-5-5--7--||
A|--5-5-5-5-5-5-5-5-5--7--||
E|--3-3-3-3-3-3-3-3-3--5--||

-------------------------------------------------------------------------------
Tap to rate this tab
# A B C D E F G H I J K L M N O P Q R S T U V W X Y Z