Song name
# A B C D E F G H I J K L M N O P Q R S T U V W X Y Z

Spider Murphy Gang - Skandal Im Sperrbezirk tab

------------------------------------------------------------------------------
                  Skandal Im Sperrbezirk - Spider Murphy Gang
------------------------------------------------------------------------------

Tuning: Standart

e|-10-10-9-9-7-7-9-9-10-10-9-9-7-7-9--9-9-8-8-6-6-8-8-9-9-8-8-7-7-8----------|
B|---------------------------------------------------------------------------|
G|---------------------------------------------------------------------------|
D|---------------------------------------------------------------------------|
A|---------------------------------------------------------------------------|
E|---------------------------------------------------------------------------|

e|---------------------------------------5---------5---------5---------5-----|
B|-8-8-7-7-5-5-7-7-8-8-7-7-5-5-7---------5---------5---------5---------5-----|
G|--------------------------------------(5)-------(5)-------(5)-------(5)----|
D|--------------------------------7-7-7-----7-7-7-----7-7-7-----7-7-7--------|
A|--------------------------------7-7-7-----7-7-7-----7-7-7-----7-7-7--------|
E|--------------------------------5-5-5-----5-5-5-----5-5-5-----5-5-5--------|
Tap to rate this tab
# A B C D E F G H I J K L M N O P Q R S T U V W X Y Z