Song name
# A B C D E F G H I J K L M N O P Q R S T U V W X Y Z

Spider - Bila Nak Saksi tab

Artist: Spider
Album: Bintang 12
Title: Bila Nak Saksi
Tabbed by: Gmaster MB/ azz_amit@yahoo.com.my
Tuning: Standard

chorus
---------------------------|------------------------------|
---------------------------|------------------------------|
-5-------------7------9----|------------------------------|
-5------3------7------9----|---3--------------------------|
-3------3------5------7----|---3--------------------------|
--------1------------------|---1--------------------------|

------3-------3---|-----5-------3---|-----5-----------|-----7-------7-12-|-----1-----|
----5---5---5---5-|---6---6---6---6-|---6---6---6-8-6-|---9---9---9------|----1------|
--5-------5-------|-5-------5-------|-7-------7-------|-9-------9--------|---2-------|
------------------|-----------------|-----------------|------------------|--3--------|
------------------|-----------------|-----------------|------------------|-----------|
------------------|-----------------|-----------------|------------------|-----------|
 pm___________________________________________________________________| let ring


Am          Dm            G                
      Wajahmu kerap kumimpi wajahmu sering kupuja
Am          Dm      G                  Em
      Buatku terasa sepi kala ku bukakan mata
F                  G          Dm           E
       Kau masih belum pun ku punya Rinduku masih kau tak peka

Am         Dm           G            
     Cintamu kerap kumimpi cintamu sering kudamba
Am         Dm           G          Em
       Buatku terasa sedih kala ku bukakan mata
F               G               Dm       E         G
       Kau masih belum pun kudakap rinduku masih kau tak singkap

C      F      Dm         E
Bila nak saksi kau datang terkulai?
C       F     Dm         E
Bila nak saksi kau datang membelai?
C       F     Dm      E         F (let ring)
Bila nak saksi cintaku sampai?

Am          Dm          G                 
	Dirimu kerap ku mimpi Dirimu sering ku khayal
Am          Dm         G                 Em
        Aku angan-angankan kau dapat bersama
F                G          Dm              E
      Nyatakan cinta yang terpendam Membina istana tersergam

C      F      Dm            Em
Bila nak saksi kau datang terkulai?
C       F     Dm             Em
Bila nak saksi kau datang membelai?
C       F     Dm        Em       F (let ring)
Bila nak saksi cintaku sampai?

F                      G          Dm             E            G
       Kau masih belum pun ku punya Rinduku masih kau tak peka


C      F      Dm            Em
Bila nak saksi kau datang terkulai?
C       F     Dm             Em
Bila nak saksi kau datang membelai?
C       F     Dm        Em       F (let ring)
Bila nak saksi cintaku sampai?


Am          Dm            G                 Em
	Dirimu kerap ku mimpi Dirimu sering ku khayal

solo = coming soon..
Tap to rate this tab
 
# A B C D E F G H I J K L M N O P Q R S T U V W X Y Z