Song name
# A B C D E F G H I J K L M N O P Q R S T U V W X Y Z

Spider - Sajak Tembok tab

Help us improve GuitareTab! Take a short survey!
Artist: Spider
Album: Bintang 12
Title: Sajak Tembok
Tabbed by: Gmaster MB/ azz_amit@yahoo.com.my
Tuning: Standard


intro                  riff 1
------------           ------8----10---8--|---------|
------------           ---10---10---------|--6---8--|
-------7~~~-           -------------------|---------|
--x-x--7~~~-           -------x3----------|---------|
-------5~~~-           -------------------|---------|
------------           -------------------|---------|

verse
----------------------------|
----------------------------|
-7--7---5--5----------------|
-7--7---5--5---3--3---5--5--|
-5--5---3--3---3--3---5--5--|
---------------1--1---3--3--|

pre chorus
----------------------------|
----------------------------|
----------------------------|
--3------5------3-------5---|
--3------5------3-------5---|
--1------3------1-------3---|

chorus
-------------------------------------------------------------------------|
--5-5-5-5-5-5-5-8-8-8-8-8-8-8-8-1010101010101010--9-9-9-9-9-9-9-9--------|
--5-5-5-5-5-5-5-9-9-9-9-9-9-9-9-1010101010101010-1010101010101010--------|
--5-5-5-5-5-5-5-9-9-9-9-9-9-9-9-1010101010101010-1010101010101010--------|
--3-3-3-3-3-3-3-7-7-7-7-7-7-7-7--8-8-8-8-8-8-8-8--8-8-8-8-8-8-8-8--------|
-------------------------------------------------------------------------|

interlude
---------------------|
---------------------|
---5---7---10---12---|
---5---7---10---12---|
---3---5---8----10---|
---------------------|

solo part
-----------------------------------|---------|
-----------------------------------|---------|
-----------------------------------|--5------|
--5-5-5-5-5-5-5-5-7-7-7-7-3-3-3-3--|--5------|
--5-5-5-5-5-5-5-5-7-7-7-7-3-3-3-3--|--3------|
--3-3-3-3-3-3-3-3-5-5-5-5-1-1-1-1--|---------|

post-chorus
-------------------------------------------------------------------------------------|
-5-5-5-5-5-5-5-5-8-8-8-8-8-8-8-8-10101010101010109-----------------------------------|
-5-5-5-5-5-5-5-5-9-9-9-9-9-9-9-9-101010101010101010----------------------------------|
-5-5-5-5-5-5-5-5-9-9-9-9-9-9-9-9-101010101010101010------6------5------3------2------|
-3-3-3-3-3-3-3-3-7-7-7-7-7-7-7-7-8-8-8-8-8-8-8-8-8---8-8----7-7----5-5----3-3---0----|
-------------------------------------------------------------------------------------|
entah part ni btl x---------------------------------|____________________________----|
Related for Sajak Tembok tab