Song name
# A B C D E F G H I J K L M N O P Q R S T U V W X Y Z

Spiderbait - Ghost Riders In The Sky tab

1/---------------------------------------|          play fast!
2/---------------------------------------|
3/---------0-0-0-0-----------------------|
4/2-2-2-2-4-------2-0-0-0-0--0-----------|
5/--------------------------2------------|
6/---------------------------------------|

1/---------------------------|
2/---------------------------|
3/---------0-0-0-0-2-4-4-2-4-|
4/2-2-2-2-4------------------|
5/---------------------------|
6/---------------------------|

Sorry i dont know more once i learn the rest ile update this tab
Tap to rate this tab
# A B C D E F G H I J K L M N O P Q R S T U V W X Y Z