Song name
# A B C D E F G H I J K L M N O P Q R S T U V W X Y Z

Spiderbait - Buy Me A Pony tab

Buy Me A Pony - Spiderbait
Standard Tuning



Intro
e|------------------------------------------|
B|------------------------------------------|
G|----7------7------7-----7-----------------| x4
D|----7------7------7-----7-----------------|
A|----5------5------5-----5-----------------|
E|------------------------------------------|

Verse
e|------------------------------------------|
B|------------------------------------------|
G|-----7----7----10----10-------------------| x3
D|-----7----7----10----10-----10----10------|
A|-----5----5----8-----8------10----10------|
E|----------------------------8-----8-------|

e|------------------------------------------|
B|------------------------------------------|
G|--12--12--12------12--12-12---------------| x2
D|--12--12--12--12--12--12-12--12--12-------| 
A|--10--10--10--12--10--10-10--12--12-------|
E|--------------10-------------10--10-------|

Chorus
e|------------------------------------------|
B|------------------------------------------|
G|--9--9--9----------7--7-7-----------------| x3
D|--9--9--9--10--10--7--7-7---7---7---7-----|
A|--7--7--7--10--10--5--5-5---7---7---7-----|
E|------------8---8-----------5---5---5-----|

e|------------------------------------------|
B|------------------------------------------|
G|------------------------------------------|
D|-5-5-5-5-5-5-5-5--10-10-10-10-10-10-10-10-|
A|-5-5-5-5-5-5-5-5--10-10-10-10-10-10-10-10-|
E|-3-3-3-3-3-3-3-3--8--8--8--8--8--8--8--8--|


e|------------------------------------------|
B|------------------------------------------|
G|------------------------------------------|
D|-7-7-7-7-7-7-7-7--12-12-12-12-12-12-12-12-|
A|-7-7-7-7-7-7-7-7--12-12-12-12-12-12-12-12-|
E|-5-5-5-5-5-5-5-5--10-10-10-10-10-10-10-10-|

 
Tap to rate this tab
 
# A B C D E F G H I J K L M N O P Q R S T U V W X Y Z