Song name
# A B C D E F G H I J K L M N O P Q R S T U V W X Y Z

Spiderbait - Chest Hair chords

+++++++++++++++++++++++++++++++++++++++++++++++++++++++++++++++++++++++++++++++++SPIDERBAIT+++++
+++++CHEST HAIR+++++

This is an awsome song and its played with heaps of distortion so turn the overdrive up.

The first intro riff goes:

E-------------------------------------------------------|
B-------------------------------------------------------|
G--------------------------------------------------12---|
D--5h7-7-7-5h7-7-7-5h7-7-5h7-7-5h7-7-7-5h7-7-7-5h7-12---|
A-------------------------------------------------------|
E-------------------------------------------------------|

You play the first riff through the verse and a second guitar just plays an E power 
over the top:

E-------|
B-------|
G--9----|
D--9----|
A--7----|
E--0----|

Then Kram yells 'YEAH!' and you play this riff:

E----------------------|
B----------------------|
G--9--9--7--7----------|
D--9--9--7--7--5/7--2--|
A--7--7--5--5--5/7--2--|
E--------------3/5--0--|

You play that a few times and then theres this bit after the chorus where you just play 
E power chord.

And thats pretty much the song - easy huh!
Thanks for cheking out my tab, see ya.

++++++++++++++++++++++++++++++++++++++++++++++++++++++++++++++++++++++++++++
Tap to rate this tab
# A B C D E F G H I J K L M N O P Q R S T U V W X Y Z