Song name
# A B C D E F G H I J K L M N O P Q R S T U V W X Y Z

Spiderbait - Its Beautiful tab

--------------------------------------------
       Spiderbait - It's Beautiful
--------------------------------------------
This is me first tab soo chillout and help me with wrongs notes :P

 <           PALM MUTE               >
e|---------------------------------------|
B|---------------------------------------|
G|-7-7-7-7-7-7-7-7---9-9-9-9-9-9-9-9-----|
D|-7-7-7-7-7-7-7-7---9-9-9-9-9-9-9-9-----|
A|-5-5-5-5-5-5-5-5---7-7-7-7-7-7-7-7-----|
E|---------------------------------------|
Walking in daydreams I float along
Sometimes I wonder where I belong
Sweet imperfection is all I see
This is the best place where I want to be
Secrets are no surprise
Hush now don't ask me why


e|------------------------------------------------------------------------------|
B|------------------------------------------------------------------------------|
G|--7-7-7-7-7-7-7-7--9-9-9-9-9-9-9-9--5-5-5-5-5-5-5-5--7-7-7-7-7-7-7-7----------|
D|--7-7-7-7-7-7-7-7--9-9-9-9-9-9-9-9--5-5-5-5-5-5-5-5--7-7-7-7-7-7-7-7----------|
A|-˛5-5-5-5-5-5-5-5--7-7-7-7-7-7-7-7--3-3-3-3-3-3-3-3--5-5-5-5-5-5-5-5----------|
E|------------------------------------------------------------------------------|
It's beautiful,
It's beautiful,
It's beautiful,
So beautiful.


 <           PALM MUTE               >
e|---------------------------------------|
B|---------------------------------------|
G|-7-7-7-7-7-7-7-7---9-9-9-9-9-9-9-9-----|
D|-7-7-7-7-7-7-7-7---9-9-9-9-9-9-9-9-----|
A|-5-5-5-5-5-5-5-5---7-7-7-7-7-7-7-7-----|
E|---------------------------------------|


Yeah life is a beat worth remembering
I just can't wait for the drugs to kick in
We're gonna take on the world tonight
It might be all wrong, but we'll be alright,
This is our last goodbye
Don't speak, don't ask me why.

e|------------------------------------------------------------------------------|
B|------------------------------------------------------------------------------|
G|--7-7-7-7-7-7-7-7--9-9-9-9-9-9-9-9--5-5-5-5-5-5-5-5--7-7-7-7-7-7-7-7----------|
D|--7-7-7-7-7-7-7-7--9-9-9-9-9-9-9-9--5-5-5-5-5-5-5-5--7-7-7-7-7-7-7-7----------|
A|-˛5-5-5-5-5-5-5-5--7-7-7-7-7-7-7-7--3-3-3-3-3-3-3-3--5-5-5-5-5-5-5-5----------|
E|------------------------------------------------------------------------------|
It's beautiful,
It's beautiful,
It's beautiful,
So beautiful.

e|------------------------------------------------------------------------------|
B|------------------------------------------------------------------------------|
G|--7-7-7-7-7-7-7-7--9-9-9-9-9-9-9-9--5-5-5-5-5-5-5-5--7-7-7-7-7-7-7-7----------|
D|--7-7-7-7-7-7-7-7--9-9-9-9-9-9-9-9--5-5-5-5-5-5-5-5--7-7-7-7-7-7-7-7----------|
A|-˛5-5-5-5-5-5-5-5--7-7-7-7-7-7-7-7--3-3-3-3-3-3-3-3--5-5-5-5-5-5-5-5----------|
E|------------------------------------------------------------------------------|
I always get a little sentimental feeling,
When the light shines from your eyes.
Lets hit the road and head into the never never,
Before this day returns to night.

And when I close my eyes,
This could be almost paradise.


e|------------------------------------------------------------------------------|
B|------------------------------------------------------------------------------|
G|--7-7-7-7-7-7-7-7--9-9-9-9-9-9-9-9--5-5-5-5-5-5-5-5--7-7-7-7-7-7-7-7----------|
D|--7-7-7-7-7-7-7-7--9-9-9-9-9-9-9-9--5-5-5-5-5-5-5-5--7-7-7-7-7-7-7-7----------|
A|-˛5-5-5-5-5-5-5-5--7-7-7-7-7-7-7-7--3-3-3-3-3-3-3-3--5-5-5-5-5-5-5-5----------|
E|------------------------------------------------------------------------------|
It's beautiful,
It's beautiful,
So beautiful.

It's beautiful,
It's beautiful,
It's beautiful,
So beautiful.

It's beautiful,
It's beautiful,
It's beautiful,
So beautiful.


 <           PALM MUTE               >
e|---------------------------------------|
B|---------------------------------------|
G|-7-7-7-7-7-7-7-7---9-9-9-9-9-9-9-9-----|
D|-7-7-7-7-7-7-7-7---9-9-9-9-9-9-9-9-----|
A|-5-5-5-5-5-5-5-5---7-7-7-7-7-7-7-7-----|
E|---------------------------------------|
Your heart has a beat worth remembering.
Your heart has a beat worth remembering.
Send It's Beautiful ringtone to your cell
Tap to rate this tab
# A B C D E F G H I J K L M N O P Q R S T U V W X Y Z