Song name
# A B C D E F G H I J K L M N O P Q R S T U V W X Y Z

Spiderbait - Four On The Floor tab

Help us improve GuitareTab! Take a short survey!
Four on the Floor
S P I D E R B A I T
Tabbed by Aaron Bridgeman (leprosy_head@hotmail.com)

http://bogans.arecool.net

KEY:
/ = slide up
^ = bend up/up and down as appropriate
x = dead note
~ = vibrato

MAIN RIFF:
e|------------------------|
B|------------------------|
G|------------------------|
D|------------------------|
A|-----2/5-------5/7-7----|
E|-0-0--------0-----------|

CHORUS:
e|--------------------------|
B|--------------------------|
G|--------------------------|
D|--------------------------|
A|-7-xx-7-xx-7-x-7-xx-7-7-5-|
E|--------------------------|

BRIDGE:
e|------------------------|-------------------|
B|------------------------|-------------------|
G|-14^--12----------------|-14^--12-----------|
D|----------14~~-14-12-14-|----------14~~~~~~-|
A|------------------------|-------------------|
E|------------------------|-------------------|
                            ends with (^)

this song is hell tops i reckon
Related for Four On The Floor tab