Guitaretab - guitar tabs
Song name
# A B C D E F G H I J K L M N O P Q R S T U V W X Y Z

Spiderbait - Fucken Awesome tab

Song: F**ken awesome
By:   Spiderbait

Intro:

e|---------------------------------|4X
B|---------------------------------|
G|---------------------------------|
D|-----------------7-7--7--9-9-9-9-|
A|-9-9--9--7-7--7--5-5--5--7-7-7-7-|
E|-7-7--7--5-5--5------------------|

Verse:

e|---------------------------------|4X
B|---------------------------------|  
G|---------------------------------|  
D|-----------------7-7--7--9-9-9-9-|  
A|-9-9--9--7-7--7--5-5--5--7-7-7-7-|  
E|-7-7--7--5-5--5------------------|  


e|------------------------------------|
B|------------------------------------|
G|-------------------7-7-7-7--9-9-9-9-|
D|-9-9-9-9--7-7-7-7--7-7-7-7--9-9-9-9-|
A|-9-9-9-9--7-7-7-7--5-5-5-5--7-7-7-7-|
E|-7-7-7-7--5-5-5-5-------------------|

Chorus:
[ Tab from: http://www.guitaretab.com/s/spiderbait/54087.html ]
e|------------------------------------|2X
B|------------------------------------|
G|----------5-5-5-5-----------7-7-7-7-|
D|-5-5-5-5--5-5-5-5--7-7-7-7--7-7-7-7-|
A|-5-5-5-5--3-3-3-3--7-7-7-7--5-5-5-5-|
E|-3-3-3-3-----------5-5-5-5----------|

Repeat verse
Repeat Chorus

Bridge:

e|---------------------------------|4X
B|---------------------------------|  
G|---------------------------------|  
D|-----------------7-7--7--9-9-9-9-|  
A|-9-9--9--7-7--7--5-5--5--7-7-7-7-|  
E|-7-7--7--5-5--5------------------|  
PM . . . . . . . . . . . . . . . . 

e|---------------------------------|
B|---------------------------------|
G|---------------------------------|
D|-9-9-9-9-9-9-9-9-9-9-9-9-9-9-9-9-|
A|-9-9-9-9-9-9-9-9-9-9-9-9-9-9-9-9-|
E|-7-7-7-7-7-7-7-7-7-7-7-7-7-7-7-7-|

Repeat chorus 2X


e|---------------------------------|End
B|---------------------------------|
G|---------------------------------|
D|-9-9-9-9-9-9-9-9-9-9-9-9-9-9-9-9-|
A|-9-9-9-9-9-9-9-9-9-9-9-9-9-9-9-9-|
E|-7-7-7-7-7-7-7-7-7-7-7-7-7-7-7-7-|
 
I tabbed this in about 30 minutes cause its pretty simple.
Spot any mistakes E-mail me @ i_h8_sk8ters@hotmail.com

Rock on.

Related for Fucken Awesome tab
Advertisement will be closed in 10 seconds