Song name
# A B C D E F G H I J K L M N O P Q R S T U V W X Y Z

Spiderbait - Sunshine On The Window tab

Sunshine on the Window by Spiderbait

Verse:
e----0-------2-------0-------2-------------|
b------2-------3-------0-------3-----------|
G--2-----2-2-----2-1-----1-2-----2---------|
D------------------------------------------|
A------------------------------------------|
E------------------------------------------|

Chorus:
     A     C     D     E
e---------------------------------------------------|
b---------------------------------------------------|
G--------5-5---7-7---9-9----------------------------|
D--7-7---5-5---7-7---9-9--[x3]----7--6--4--2--[x1]--|
A--7-7---3-3---5-5---7-7----------7--6--4--2--------|
E--5-5----------------------------5--4--2--0--------|

Bridge:
'Don't tell me...'
e--------------|
b--------------|
G--7---9-------|
D--7---9---7---|
A--5---7---7---|  x4
E----------5---|
Tap to rate this tab
 
# A B C D E F G H I J K L M N O P Q R S T U V W X Y Z