Song name
# A B C D E F G H I J K L M N O P Q R S T U V W X Y Z

Spiderbait - Footy tab

Spiderbait - Footy


Intro

E|-------------------------------------|
B|-------------------------------------|
G|-------------------------------------|
D|-------------------2-2-2-2--4-4-4-4--| x3
A|--2-2-2-2-2-2-2-2--0-0-0-0--2-2-2-2--|
E|--0-0-0-0-0-0-0-0--------------------|

E|-------------------------------------|
B|-------------------------------------|
G|----------------------------4--------|
D|-------------------2-2-2-2--4--------|
A|--2-2-2-2-2-2-2-2--0-0-0-0--2--------|
E|--0-0-0-0-0-0-0-0--------------------|


Verse

E|-------------------------------------|
B|-------------------------------------|
G|-------------------------------------|
D|-------------------2-2-2-2--4-4-4-4--|
A|--2-2-2-2-2-2-2-2--0-0-0-0--2-2-2-2--|
E|--0-0-0-0-0-0-0-0--------------------|


Chorus

E|-------------------------------------|
B|-------------------------------------|
G|-------------------------------------|
D|--9-9-9-9--7-7-7-7--2-2-2-2--4-4-4-4-|
A|--7-7-7-7--5-5-5-5--0-0-0-0--2-2-2-2-|
E|-------------------------------------|

E|-------------------------------------|
B|-------------------------------------|
G|-----------------------------4-------|
D|--9-9-9-9--7-7-7-7--2-2-2-2--4-------|
A|--7-7-7-7--5-5-5-5--0-0-0-0--2-------|
E|-------------------------------------|


Interlude

E|-------------------------------------|
B|-------------------------------------|
G|-------------------------------------|
D|-------------------2-2-2-2--4-4-4-4--|
A|--2-2-2-2-2-2-2-2--0-0-0-0--2-2-2-2--|
E|--0-0-0-0-0-0-0-0--------------------|


Outro

E|-------------------------------------|
B|-------------------------------------|
G|-------------------------------------|
D|--------------------------------2----|
A|--2-2-2-2-2-2-2-2-2-2-2-2-2-2---2----|
E|--0-0-0-0-0-0-0-0-0-0-0-0-0-0---0----|


Intro                    x1
Verse                    x4
Chorus                   x2
Interlude                x2
Verse                    x4
Chorus                   x2
Interlude (Solo Rhythm)  x4
Verse                    x4
Chorus                   x2
Outro                    x1
Tap to rate this tab
# A B C D E F G H I J K L M N O P Q R S T U V W X Y Z