Guitaretab - guitar tabs
Song name
# A B C D E F G H I J K L M N O P Q R S T U V W X Y Z

Spiderbait - Picky tab

~ = Vibrato
h = Hammer On
/ = Slide Up
\ = Slide Down 
R = Release

(On G chords it is easier to play X-X-0-0-3-3)

Intro

e|-----------------------------------------------------|
B|-----------------------------------------------------|
G|-----------------------------------------------------|
D|-4-4/5-5/7~----9-9h7-7-/4~---------------------------|   X 3
A|-----------------------------------------------------|
E|-----------------------------------------------------|
Then
e|-----------------------------------------------------|
B|-----------------------------------------------------|
G|-----------------------------------------------------|
D|-4-4/5-5/7~----7h9-6/7~-4~------~--------------------|
A|-----------------------------------------------------|
E|-----------------------------------------------------|

Verse 1 
 
   G
e|-3-----------------------------------------------------|
B|-3-----------------------------------------------------|
G|-0-----------------------------------------------------|
D|-0-4/5-5/7~----9-9h7-7-/4~-----------------------------|	x 3
A|-2-----------------------------------------------------|
E|-3-----------------------------------------------------|
   G
e|-3-----------------------------------------------------|
B|-3-----------------------------------------------------|
G|-0-----------------------------------------------------|
D|-0-4/5-5/7~----7h9-6/7~-4~-----------------------------|
A|-2-----------------------------------------------------|
E|-3-----------------------------------------------------|

Chorus 

e|------------------------------------------------------|
B|------------------------------------------------------|
G|------------------------------------------------------|
D|-12-12h10-10-12~---10-10h8-8-10~----------------------|
A|------------------------------------------------------|
E|------------------------------------------------------|



e|-----------------------------------------------------|
B|-----------------------------------------------------|
G|-----------------------------------------------------|
D|-4-4/5-5/7~----9-9h7-7-/4~---------------------------| 
A|-----------------------------------------------------|
E|-----------------------------------------------------|

e|-----------------------------------------------------|
B|-----------------------------------------------------|
G|-----------------------------------------------------|
D|-4-4/5-5/7~----7h9-6/7~-4~------~--------------------|
A|-----------------------------------------------------|
E|-----------------------------------------------------|


Verse 2

   G
e|-3-----------------------------------------------------|
B|-3-----------------------------------------------------|
G|-0-----------------------------------------------------|
D|-0-4/5-5/7~----9-9h7-7-/4~-----------------------------|	x 3
A|-2-----------------------------------------------------|
E|-3-----------------------------------------------------|

   G
e|-3-----------------------------------------------------|
B|-3-----------------------------------------------------|
G|-0-----------------------------------------------------|
D|-0-4/5-5/7~----7h9-6/7~-4~-----------------------------|
A|-2-----------------------------------------------------|
E|-3-----------------------------------------------------|

Chorus 

e|------------------------------------------------------|
B|------------------------------------------------------|
G|------------------------------------------------------|
D|-12-12h10-10-12~---10-10h8-8-10~----------------------|
A|------------------------------------------------------|
E|------------------------------------------------------|

e|-----------------------------------------------------|
B|-----------------------------------------------------|
G|-----------------------------------------------------|
D|-4-4/5-5/7~----9-9h7-7-/4~---------------------------|   X 3
A|-----------------------------------------------------|
E|-----------------------------------------------------|





e|-----------------------------------------------------|
B|-----------------------------------------------------|
G|-----------------------------------------------------|
D|-4-4/5-5/7~----7h9-6/7~-4~------~--------------------|
A|-----------------------------------------------------|
E|-----------------------------------------------------|

Bridge

e|------------------------------------------------------|
B|------------------------------------------------------|
G|------------------------------------------------------|
D|-12-12h10-10-12~---10-10h8-8-10~----------------------|
A|------------------------------------------------------|
E|------------------------------------------------------|

e|------------------------------------------------------|
B|------------------------------------------------------|
G|-4-4/5-5/7~----7h9-7-/4~------------------------------|	
D|------------------------------------------------------|
A|------------------------------------------------------|
E|------------------------------------------------------|
[ Tab from: http://www.guitaretab.com/s/spiderbait/84064.html ]
e|-----------------------------------------------------|
B|-----------------------------------------------------|
G|-----------------------------------------------------|
D|-4-4/5-5/7~----7h9-6/7~-4~------~--------------------|
A|-----------------------------------------------------|
E|-----------------------------------------------------|

Solo (With Waa Waa)

e|-------------------3b-------------------7-8b----------|
B|-1-3-1------5b-3-5----3------7b-7-6-7-5---------------|
G|-------5b----------------5b---------------------------|
D|------------------------------------------------------|
A|------------------------------------------------------|
E|------------------------------------------------------|
    |_____|	|__|
   Quietly

e|-10b-8-5-7b-5-6b-8-3b-7b-5b-1-------------------------|
B|------------------------------1-3-7-5-3-0-------------|
G|------------------------------------------------------|
D|------------------------------------------------------|
A|------------------------------------------------------|
E|------------------------------------------------------|



Then
e|-----------------------------------------------------|
B|-----------------------------------------------------|
G|-----------------------------------------------------|
D|-4-4/5-5/7~----9-9h7-7-/4~---------------------------|   X 
A|-----------------------------------------------------|
E|-----------------------------------------------------|

e|-----------------------------------------------------|
B|-----------------------------------------------------|
G|-----------------------------------------------------|
D|-4-4/5-5/7~----7h9-6/7~-4~------~--------------------|
A|-----------------------------------------------------|
E|-----------------------------------------------------|

Verse 3

   G
e|-3-----------------------------------------------------|
B|-3-----------------------------------------------------|
G|-0-----------------------------------------------------|
D|-0-4/5-5/7~----9-9h7-7-/4~-----------------------------|	x 3
A|-2-----------------------------------------------------|
E|-3-----------------------------------------------------|
   G
e|-3-----------------------------------------------------|
B|-3-----------------------------------------------------|
G|-0-----------------------------------------------------|
D|-0-4/5-5/7~----7h9-6/7~-4~-----------------------------|
A|-2-----------------------------------------------------|
E|-3-----------------------------------------------------|

Chorus 

e|------------------------------------------------------|
B|------------------------------------------------------|
G|------------------------------------------------------|
D|-12-12h10-10-12~---10-10h8-8-10~----------------------|
A|------------------------------------------------------|
E|------------------------------------------------------|

e|------------------------------------------------------|
B|------------------------------------------------------|
G|-4-4/5-5/7~----7h9-7-/4~------------------------------|	
D|------------------------------------------------------|
A|------------------------------------------------------|
E|------------------------------------------------------|




e|-----------------------------------------------------|
B|-----------------------------------------------------|
G|-----------------------------------------------------|
D|-4-4/5-5/7~----7h9-6/7~-4~------~--------------------|
A|-----------------------------------------------------|
E|-----------------------------------------------------|

X 2

Outro

   G
e|-3-----------------------------------------------------|
B|-3-----------------------------------------------------|
G|-0-----------------------------------------------------|
D|-0-4/5-5/7~----9-9h7-7-/4~-----------------------------|	x 3
A|-2-----------------------------------------------------|
E|-3-----------------------------------------------------|

e|-----------------------------------------------------|
B|-----------------------------------------------------|
G|-----------------------------------------------------|
D|-4-4/5-5/7~----7h9-7-6h7-4~~~---~--------------------|
A|-----------------------------------------------------|
E|-----------------------------------------------------|

Lyrics (Not 100% sure)

I can see it clear, thereís something going on,
Think it true blown from the stereo,
I noticed yours, is big enough for two, yeah,
This scene wonít, so Iíll tell it to, 
Iím gonna let her down,
Let her once again,
Ohh right,
You can tell me it, and who you are,
So donít tell me, you know all those,
I noticed yours, is big enough for two,
So wonít you listen what Iím telliní you,
I want to her down,
I need her once again,
Just want to let it down,
I need it one more time,
Ooooooo hoo hoo
One more timeÖ
One more timeÖ
I can see it clear, thereís something going on,
Think it true blown from the stereo,
And I noticed yours, is big enough for two, yeah,
Itís no different from me and you
I want to her down,
I need her once again,
I want to her down,
I need it one more time,
Ooooooo hooo,
Alright
Related for Picky tab