Song name
# A B C D E F G H I J K L M N O P Q R S T U V W X Y Z

Spill Canvas - All Over You Acoustic tab

-----------------------------------------------------------------------
		     All Over You - The Spill Canvas
-----------------------------------------------------------------------
Tabbed by: Alex :]
Email: american_classic5@yahoo.com

Chords used:
G - 230033
Am7 - xx2010
C - x32010
F5* - 132000

*I don't think this chord has a name so lets just call it F5 because its the closest 
to it that I could find.

Tuning: standard, capo I

intro/verse:

e|--------------------------------------------------------------------|
B|--------------------------------------------------------------------|
G|-0-0-0-0-0-0-0-0--0-0-0--0-0-0--0-----------------------------------|
D|-2-2-2-2-2-2-2-2--5-5-5--3-3-3--2---3-3-3-3-3-3-3-3--2-2-2--0-0-0--2|
A|-0-0-0-0-0-0-2-2--0-0-0--0-0-0--0---3-3-3-3-3-3-3-3--3-3-3--3-3-3--3|
E|------------------------------------1-1-1-1-1-1-1-1--1-1-1--1-1-1--1|

e|--------------------------------------------------------------------|
B|--------------------------------------------------------------------|
G|-0-0-0-0-0-0-0-0--0-0-0--0-0-0--0-----------------------------------|
D|-2-2-2-2-2-2-2-2--5-5-5--3-3-3--2---3-3-3-3-3-3-3-3--2-2-2--0-0-0--2|
A|-0-0-0-0-0-0-2-2--0-0-0--0-0-0--0---3-3-3-3-3-3-3-3--3-3-3--3-3-3--3|
E|------------------------------------1-1-1-1-1-1-1-1--1-1-1--1-1-1--1|

  Yeah, he's a looker, but I really think it's guts that matter most.
e|--------------------------------------------------------------------|
B|--------------------------------------------------------------------|
G|-0-0-0-0-0-0-0-0--0-0-0--0-0-0--0-----------------------------------|
D|-2-2-2-2-2-2-2-2--5-5-5--3-3-3--2---3-3-3-3-3-3-3-3--2-2-2--0-0-0--2|
A|-0-0-0-0-0-0-2-2--0-0-0--0-0-0--0---3-3-3-3-3-3-3-3--3-3-3--3-3-3--3|
E|------------------------------------1-1-1-1-1-1-1-1--1-1-1--1-1-1--1|

  I displayed them for you, strewn out about from coast to coast.
e|--------------------------------------------------------------------|
B|--------------------------------------------------------------------|
G|-0-0-0-0-0-0-0-0--0-0-0--0-0-0--0-----------------------------------|
D|-2-2-2-2-2-2-2-2--5-5-5--3-3-3--2---3-3-3-3-3-3-3-3--2-2-2--0-0-0--2|
A|-0-0-0-0-0-0-2-2--0-0-0--0-0-0--0---3-3-3-3-3-3-3-3--3-3-3--3-3-3--3|
E|------------------------------------1-1-1-1-1-1-1-1--1-1-1--1-1-1--1|


2nd part of verse:
(the strumming pattern here is down, down, up, down, up, down.)

  I am easily make believe. Just dress me up in what you want me to be.
e|-0--X----0--X--0--X-----------------0--X----0--X--0--X--------------|
B|-0--X----0--X--0--X-----------------0--X----0--X--0--X--------------|
G|-0--X----0--X--0--X-----------------0--X----0--X--0--X--------------|
D|-2--X----2--X--2--X-----------------2--X----2--X--2--X--------------|
A|-0--X----0--X--0--X-----------------3--X----3--X--3--X--------------|
E|----X-------X-----X-----------------1--X----1--X--1--X--------------|

I'll take back, what I've been saying for quite some time now.
e|-3--X----3--X--3--X-----------------0--X----0--X--0--0--0--0--------|
B|-3--X----3--X--3--X-----------------0--X----0--X--0--0--0--0--------|
G|-0--X----0--X--0--X-----------------0--X----0--X--0--0--0--0--------|
D|-0--X----0--X--0--X-----------------2--X----2--X--2--2--2--2--------|
A|-2--X----2--X--2--X-----------------3--X----3--X--3--3--3--3--------|
E|-3--X----3--X--3--X-----------------1--X----1--X--1--1--1--1--------|

chorus:

G                Am7           C
I gotta feel you in my bones again.
C                  C
I'm all over you, I'm not over you.
G                 Am7       C
I wanna taste you one more time again.
C                  C
I'm all over you. I'm not over you.


verse 2:

e|--------------------------------------------------------------------|
B|--------------------------------------------------------------------|
G|-0-0-0-0-0-0-0-0--0-0-0--0-0-0--0-----------------------------------|
D|-2-2-2-2-2-2-2-2--5-5-5--3-3-3--2---3-3-3-3-3-3-3-3--2-2-2--0-0-0--2|
A|-0-0-0-0-0-0-2-2--0-0-0--0-0-0--0---3-3-3-3-3-3-3-3--3-3-3--3-3-3--3|
E|------------------------------------1-1-1-1-1-1-1-1--1-1-1--1-1-1--1|

 In my daydreams, in my sleep, infatuation turning into disease.
e|-0--X----0--X--0--X-----------------0--X----0--X--0--X--------------|
B|-0--X----0--X--0--X-----------------0--X----0--X--0--X--------------|
G|-0--X----0--X--0--X-----------------0--X----0--X--0--X--------------|
D|-2--X----2--X--2--X-----------------2--X----2--X--2--X--------------|
A|-0--X----0--X--0--X-----------------3--X----3--X--3--X--------------|
E|----X-------X-----X-----------------1--X----1--X--1--X--------------|

 You could cure me. See, all you have to do now is please,
e|-3--X----3--X--3--X-----------------0--X----0--X--0--0--0--0--------|
B|-3--X----3--X--3--X-----------------0--X----0--X--0--0--0--0--------|
G|-0--X----0--X--0--X-----------------0--X----0--X--0--0--0--0--------|
D|-0--X----0--X--0--X-----------------2--X----2--X--2--2--2--2--------|
A|-2--X----2--X--2--X-----------------3--X----3--X--3--3--3--3--------|
E|-3--X----3--X--3--X-----------------1--X----1--X--1--1--1--1--------|

Am7                              F5
try, give it your best shot and try.
                        G
All I'm asking for is love.
                       F5
But you never seem to have enough.


chorus 2:

G                Am7           C
I gotta feel you in my bones again.
C                  C
I'm all over you, I'm not over you.
G                 Am7       C
I wanna taste you one more time again.
C                  C
I'm all over you. I'm not over you.
G            Am7       C
This life is way too short
    C
To get caught up in all this stuff
     G                   Am7     C
When I just want you to love me back.
C                    C       G
Why can't you just love me back?


bridge/interlude/whatever you want to call it:
(I'm not actually sure about this part at all... so I'm really sorry if its completely wrong.)

e|--------------------------------------------------------------------|
B|--------------------------------------------------------------------|
G|-0-0-0-0-0-0-0-0--0-0-0--0-0-0--0-----------------------------------|
D|-2-2-2-2-2-2-2-2--5-5-5--3-3-3--2---3-3-3-3-3-3-3-3--2-2-2--0-0-0--2|
A|-0-0-0-0-0-0-2-2--0-0-0--0-0-0--0---3-3-3-3-3-3-3-3--3-3-3--3-3-3--3|
E|------------------------------------1-1-1-1-1-1-1-1--1-1-1--1-1-1--1|

 Why can't you just love me back?
e|--------------------------------------------------------------------|
B|--------------------------------------------------------------------|
G|-0-0-0-0-0-0-0-0--0-0-0--0-0-0--0-----------------------------------|
D|-2-2-2-2-2-2-2-2--5-5-5--3-3-3--2---3-3-3-3-3-3-3-3--2-2-2--0-0-0--2|
A|-0-0-0-0-0-0-2-2--0-0-0--0-0-0--0---3-3-3-3-3-3-3-3--3-3-3--3-3-3--3|
E|------------------------------------1-1-1-1-1-1-1-1--1-1-1--1-1-1--1|

 Why can't you, why can't you, why can't you just love me back?
e|--------------------------------------------------------------------|
B|--------------------------------------------------------------------|
G|-0-0-0-0-0-0-0-0--0-0-0--0-0-0--0-----------------------------------|
D|-2-2-2-2-2-2-2-2--5-5-5--3-3-3--2---3-3-3-3-3-3-3-3--2-2-2--0-0-0--2|
A|-0-0-0-0-0-0-2-2--0-0-0--0-0-0--0---3-3-3-3-3-3-3-3--3-3-3--3-3-3--3|
E|------------------------------------1-1-1-1-1-1-1-1--1-1-1--1-1-1--1|

 Why can't you, why can't you, why can't you just love me back?
e|--------------------------------------------------------------------|
B|--------------------------------------------------------------------|
G|-0-0-0-0-0-0-0-0--0-0-0--0-0-0--0-----------------------------------|
D|-2-2-2-2-2-2-2-2--5-5-5--3-3-3--2---3-3-3-3-3-3-3-3--2-2-2--0-0-0--2|
A|-0-0-0-0-0-0-2-2--0-0-0--0-0-0--0---3-3-3-3-3-3-3-3--3-3-3--3-3-3--3|
E|------------------------------------1-1-1-1-1-1-1-1--1-1-1--1-1-1--1|

 Why can't you, why can't you, why can't you just love...
e|--------------------------------------------------------------------|
B|--------------------------------------------------------------------|
G|-0-0-0-0-0-0-0-0--0-0-0--0-0-0--0-----------------------------------|
D|-2-2-2-2-2-2-2-2--5-5-5--3-3-3--2---3-3-3-3-3-3-3-3--2-2-2--0-0-0--2|
A|-0-0-0-0-0-0-2-2--0-0-0--0-0-0--0---3-3-3-3-3-3-3-3--3-3-3--3-3-3--3|
E|------------------------------------1-1-1-1-1-1-1-1--1-1-1--1-1-1--1|

chorus 3:
G                Am7           C
I gotta feel you in my bones again.
C                  C
I'm all over you, I'm not over you.
G                 Am7       C
I wanna taste you one more time again...
Am7             C
Just one more time.
G            Am7       C
This life is way too short
    C
To get caught up in all this stuff
     G                   Am7     C
When I just want you to love me back.
C                    C      G
Why can't you just love me back?

ending:

                                      Why won't you just love me back?
e|--------------------------------------------------------------------|
B|--------------------------------------------------------------------|
G|-0-0-0-0-0-0-0-0--0-0-0--0-0-0--0-----------------------------------|
D|-2-2-2-2-2-2-2-2--5-5-5--3-3-3--2---3-3-3-3-3-3-3-3--2-2-2--0-0-0--2|
A|-0-0-0-0-0-0-2-2--0-0-0--0-0-0--0---3-3-3-3-3-3-3-3--3-3-3--3-3-3--3|
E|------------------------------------1-1-1-1-1-1-1-1--1-1-1--1-1-1--1|

                                      Why can't you just love me back?
e|-------------------------------------------------------------------0|
B|-------------------------------------------------------------------1|
G|0-0-0-0-0-0-0-0--0-0-0--0-0-0--0-----------------------------------0|
D|2-2-2-2-2-2-2-2--5-5-5--3-3-3--2--3-3-3-3-3-3-3-3--2-2-2--0-0-0--2-2|
A|0-0-0-0-0-0-2-2--0-0-0--0-0-0--0--3-3-3-3-3-3-3-3--3-3-3--3-3-3--3--|
E|----------------------------------1-1-1-1-1-1-1-1--1-1-1--1-1-1--1--|


Enjoy!
Tap to rate this tab
 
# A B C D E F G H I J K L M N O P Q R S T U V W X Y Z