Song name
# A B C D E F G H I J K L M N O P Q R S T U V W X Y Z

Spill Canvas - Saved Acoustic tab

Artist: The Spill Canvas
Album:  Superman/No Really, I'm Fine
Tuning: Drop D, +Half Step Down

This is the very first tab I've ever done, so give me some feedback and rate it. I
this song by watching Nick play it on Purevolume Sessions at
This song is in order, the strumming isn't show, and the lyrics to the song are located
the bottom of this tab. If you have any corrections, feel free to email me at
Tracingsanctuary@yahoo.com.

-Intro-(x1)

Eb|-2-------2-----|
Bb|-3-------3-----|
Gb|-2---7---2---7-|
Db|-0---7---0---7-|
Ab|-0---5---0---5-|
Db|-0---5---0---5-|


-Verse-(x2)

"I am unbreakable(...)the moon."
Eb|-----------------------------|
Bb|-----------------------------|
Gb|-7---7---7---7---------------|
Db|-7---7---7---7---------------|
Ab|-5---5---5---5---------------|
Db|-0---5---0---5---------------|


-Pre-chorus-(x1)

"I am unraveling(...)catch me."
Eb|------------------------------|
Bb|------------------------------|
Gb|-4-~-4---7---7---4-~-7---7----|
Db|-4-~-4---7-~-7---4-~-7---7----|
Ab|-2-~-0---5-~-4---2-~-5---5----|
Db|-----0---5-~-4-------0---5----|


-Chorus-(x1)

"You came and(...) 'cause I'm alive."
Eb|-2-~-x---x------2-~-x---x----------|
Bb|-3-~-3-~-3------3-~-3-~-3----------|
Gb|-2-~-2-~-2------2-~-2-~-2---7---7--|
Db|-0-~-2-~-0------0-~-2-~-0---7---7--|
Ab|-0-~-0-~-2------0-~-0-~-2---5---5--|
Db|-0-~-0-~-0------0-~-0-~-0---0---5--|


-Post-chorus-(x1)

Eb|-2-------2-----|
Bb|-3-------3-----|
Gb|-2---7---2---7-|
Db|-0---7---0---7-|
Ab|-0---5---0---5-|
Db|-0---5---0---5-|


-Verse-(x2)

"This is the epitome(...)if you help me."
Eb|-----------------------------|
Bb|-----------------------------|
Gb|-7---7---7---7---------------|
Db|-7---7---7---7---------------|
Ab|-5---5---5---5---------------|
Db|-0---5---0---5---------------|


-Pre-chorus-(x1)

"I am unraveling(...)catch me."
Eb|------------------------------|
Bb|------------------------------|
Gb|-4-~-4---7---7---4-~-7---7----|
Db|-4-~-4---7-~-7---4-~-7---7----|
Ab|-2-~-0---5-~-4---2-~-5---5----|
Db|-----0---5-~-4-------0---5----|


-Chorus-(x1)

"You came and(...) 'cause I'm alive."
Eb|-2-~-x---x------2-~-x---x----------|
Bb|-3-~-3-~-3------3-~-3-~-3----------|
Gb|-2-~-2-~-2------2-~-2-~-2---7---7--|
Db|-0-~-2-~-0------0-~-2-~-0---7---7--|
Ab|-0-~-0-~-2------0-~-0-~-2---5---5--|
Db|-0-~-0-~-0------0-~-0-~-0---0---5--|


(x1)

"My Faith(...)finally I believe."
Eb|-------2----------2------------------2-----------2---------|
Bb|-------3----------3------------------3-----------3---------|
Gb|-------2----------2------------------2-----------2---------|
Db|-9--5--0--5----9--0--7--2-----9--5---0--7----9---0---7--2--|
Ab|-9--5--0--5----9--0--7--2-----9--5---0--7----9---0---7--2--|
Db|-9--5--0--5----9--0--7--2-----9--5---0--7----9---0---7--2--|


-Verse-(x1)

"You unbreakable(...)sometime soon."
Eb|-----------------------------|
Bb|-----------------------------|
Gb|-7---7---7---7---------------|
Db|-7---7---7---7---------------|
Ab|-5---5---5---5---------------|
Db|-0---5---0---5---------------|


-Pre-chorus-(x1)

"I am unraveling(...)catch me."
Eb|------------------------------|
Bb|------------------------------|
Gb|-4-~-4---7---7---4-~-7---7----|
Db|-4-~-4---7-~-7---4-~-7---7----|
Ab|-2-~-0---5-~-4---2-~-5---5----|
Db|-----0---5-~-4-------0---5----|


-Chorus-(x1)

"You came and(...) 'cause I'm alive."
Eb|-2-~-x---x------2-~-x---x----------|
Bb|-3-~-3-~-3------3-~-3-~-3----------|
Gb|-2-~-2-~-2------2-~-2-~-2---7---7--|
Db|-0-~-2-~-0------0-~-2-~-0---7---7--|
Ab|-0-~-0-~-2------0-~-0-~-2---5---5--|
Db|-0-~-0-~-0------0-~-0-~-0---0---5--|


-Outro-(x1)

Eb|-2-------2-----|
Bb|-3-------3-----|
Gb|-2---7---2---7-|
Db|-0---7---0---7-|
Ab|-0---5---0---5-|
Db|-0---5---0---5-|


End on:

|---2----|
|---3----|
|---2----|
|---0----|
|---0----|
|---0----|

~Lyrics~

I am unbreakable but it looks like I could sometime soon
And you are unreachable about as possible as me touching the moon

I am unraveling unbearably empty
and if this ground gives way I just hope that you値l catch me.

You came and saved me tonight
Defending all my life
Whoa, now I知 content with my breathe cuz I知 alive

And this is the epitome of everything you see in the movies
And this world is a time bomb ticking and I think I can stop it if you help me.

I am unraveling unbearably empty and if this ground gives way I just hope that you値l
me.

You came and saved me tonight
Defending all my life
Whoa, now I知 content with my breath cuz I知 alive

My faith will never rust
No longer prone to bust
Oh finally I believe...

You are unreachable but it looks like i could sometime soon

You came and saved me tonight
Defending all my life
Now I'm content with my breath
Cuz I'm alive

Cuz I'm alive...
Tap to rate this tab
 
# A B C D E F G H I J K L M N O P Q R S T U V W X Y Z